  0
SECTION
  2
HEADER
  9
$ACADVER
  1
AC1015
  9
$ACADMAINTVER
 70
     6
  9
$DWGCODEPAGE
  3
ANSI_932
  9
$INSBASE
 10
0.0
 20
0.0
 30
0.0
  9
$EXTMIN
 10
-565.2000000000002
 20
-414.9068089556921
 30
0.0
  9
$EXTMAX
 10
565.2
 20
414.9068089556921
 30
0.0
  9
$LIMMIN
 10
-210.0
 20
-148.5
  9
$LIMMAX
 10
210.0
 20
148.5
  9
$ORTHOMODE
 70
     0
  9
$REGENMODE
 70
     1
  9
$FILLMODE
 70
     1
  9
$QTEXTMODE
 70
     0
  9
$MIRRTEXT
 70
     1
  9
$LTSCALE
 40
0.25
  9
$ATTMODE
 70
     1
  9
$TEXTSIZE
 40
0.2
  9
$TRACEWID
 40
0.05
  9
$TEXTSTYLE
  7
Standard
  9
$CLAYER
  8
0
  9
$CELTYPE
  6
ByLayer
  9
$CECOLOR
 62
   256
  9
$CELTSCALE
 40
1.0
  9
$DISPSILH
 70
     0
  9
$DIMSCALE
 40
1.0
  9
$DIMASZ
 40
3.000001907348633
  9
$DIMEXO
 40
1.0
  9
$DIMDLI
 40
10.0
  9
$DIMRND
 40
0.0
  9
$DIMDLE
 40
0.0
  9
$DIMEXE
 40
1.0
  9
$DIMTP
 40
0.0
  9
$DIMTM
 40
0.0
  9
$DIMTXT
 40
3.5
  9
$DIMCEN
 40
0.0
  9
$DIMTSZ
 40
0.0
  9
$DIMTOL
 70
     0
  9
$DIMLIM
 70
     0
  9
$DIMTIH
 70
     0
  9
$DIMTOH
 70
     0
  9
$DIMSE1
 70
     0
  9
$DIMSE2
 70
     0
  9
$DIMTAD
 70
     1
  9
$DIMZIN
 70
     8
  9
$DIMBLK
  1

  9
$DIMASO
 70
     1
  9
$DIMSHO
 70
     1
  9
$DIMPOST
  1

  9
$DIMAPOST
  1

  9
$DIMALT
 70
     0
  9
$DIMALTD
 70
     2
  9
$DIMALTF
 40
25.4
  9
$DIMLFAC
 40
1.0
  9
$DIMTOFL
 70
     0
  9
$DIMTVP
 40
0.0
  9
$DIMTIX
 70
     0
  9
$DIMSOXD
 70
     0
  9
$DIMSAH
 70
     0
  9
$DIMBLK1
  1

  9
$DIMBLK2
  1

  9
$DIMSTYLE
  2
Standard
  9
$DIMCLRD
 70
     0
  9
$DIMCLRE
 70
     0
  9
$DIMCLRT
 70
     0
  9
$DIMTFAC
 40
0.65
  9
$DIMGAP
 40
0.09
  9
$DIMJUST
 70
     0
  9
$DIMSD1
 70
     0
  9
$DIMSD2
 70
     0
  9
$DIMTOLJ
 70
     0
  9
$DIMTZIN
 70
     0
  9
$DIMALTZ
 70
     0
  9
$DIMALTTZ
 70
     0
  9
$DIMUPT
 70
     0
  9
$DIMDEC
 70
     2
  9
$DIMTDEC
 70
     2
  9
$DIMALTU
 70
     2
  9
$DIMALTTD
 70
     2
  9
$DIMTXSTY
  7
Standard
  9
$DIMAUNIT
 70
     0
  9
$DIMADEC
 70
     2
  9
$DIMALTRND
 40
0.0
  9
$DIMAZIN
 70
     2
  9
$DIMDSEP
 70
    46
  9
$DIMATFIT
 70
     3
  9
$DIMFRAC
 70
     0
  9
$DIMLDRBLK
  1

  9
$DIMLUNIT
 70
     2
  9
$DIMLWD
 70
    -2
  9
$DIMLWE
 70
    -2
  9
$DIMTMOVE
 70
     0
  9
$LUNITS
 70
     2
  9
$LUPREC
 70
     4
  9
$SKETCHINC
 40
0.1
  9
$FILLETRAD
 40
0.5
  9
$AUNITS
 70
     0
  9
$AUPREC
 70
     0
  9
$MENU
  1
.
  9
$ELEVATION
 40
0.0
  9
$PELEVATION
 40
0.0
  9
$THICKNESS
 40
0.0
  9
$LIMCHECK
 70
     0
  9
$CHAMFERA
 40
0.0
  9
$CHAMFERB
 40
0.0
  9
$CHAMFERC
 40
0.0
  9
$CHAMFERD
 40
0.0
  9
$SKPOLY
 70
     0
  9
$TDCREATE
 40
2458290.718725093
  9
$TDUCREATE
 40
2458290.343725093
  9
$TDUPDATE
 40
2458290.71872654
  9
$TDUUPDATE
 40
2458290.34372654
  9
$TDINDWG
 40
0.0000000116
  9
$TDUSRTIMER
 40
0.0000000116
  9
$USRTIMER
 70
     1
  9
$ANGBASE
 50
0.0
  9
$ANGDIR
 70
     0
  9
$PDMODE
 70
     0
  9
$PDSIZE
 40
1.0
  9
$PLINEWID
 40
0.0
  9
$SPLFRAME
 70
     0
  9
$SPLINETYPE
 70
     6
  9
$SPLINESEGS
 70
     8
  9
$HANDSEED
  5
3AA
  9
$SURFTAB1
 70
     6
  9
$SURFTAB2
 70
     6
  9
$SURFTYPE
 70
     6
  9
$SURFU
 70
     6
  9
$SURFV
 70
     6
  9
$UCSBASE
  2

  9
$UCSNAME
  2

  9
$UCSORG
 10
0.0
 20
0.0
 30
0.0
  9
$UCSXDIR
 10
1.0
 20
0.0
 30
0.0
  9
$UCSYDIR
 10
0.0
 20
1.0
 30
0.0
  9
$UCSORTHOREF
  2

  9
$UCSORTHOVIEW
 70
     0
  9
$UCSORGTOP
 10
0.0
 20
0.0
 30
0.0
  9
$UCSORGBOTTOM
 10
0.0
 20
0.0
 30
0.0
  9
$UCSORGLEFT
 10
0.0
 20
0.0
 30
0.0
  9
$UCSORGRIGHT
 10
0.0
 20
0.0
 30
0.0
  9
$UCSORGFRONT
 10
0.0
 20
0.0
 30
0.0
  9
$UCSORGBACK
 10
0.0
 20
0.0
 30
0.0
  9
$PUCSBASE
  2

  9
$PUCSNAME
  2

  9
$PUCSORG
 10
0.0
 20
0.0
 30
0.0
  9
$PUCSXDIR
 10
1.0
 20
0.0
 30
0.0
  9
$PUCSYDIR
 10
0.0
 20
1.0
 30
0.0
  9
$PUCSORTHOREF
  2

  9
$PUCSORTHOVIEW
 70
     0
  9
$PUCSORGTOP
 10
0.0
 20
0.0
 30
0.0
  9
$PUCSORGBOTTOM
 10
0.0
 20
0.0
 30
0.0
  9
$PUCSORGLEFT
 10
0.0
 20
0.0
 30
0.0
  9
$PUCSORGRIGHT
 10
0.0
 20
0.0
 30
0.0
  9
$PUCSORGFRONT
 10
0.0
 20
0.0
 30
0.0
  9
$PUCSORGBACK
 10
0.0
 20
0.0
 30
0.0
  9
$USERI1
 70
     0
  9
$USERI2
 70
     0
  9
$USERI3
 70
     0
  9
$USERI4
 70
     0
  9
$USERI5
 70
     0
  9
$USERR1
 40
0.0
  9
$USERR2
 40
0.0
  9
$USERR3
 40
0.0
  9
$USERR4
 40
0.0
  9
$USERR5
 40
0.0
  9
$WORLDVIEW
 70
     1
  9
$SHADEDGE
 70
     3
  9
$SHADEDIF
 70
    70
  9
$TILEMODE
 70
     1
  9
$MAXACTVP
 70
    64
  9
$PINSBASE
 10
0.0
 20
0.0
 30
0.0
  9
$PLIMCHECK
 70
     0
  9
$PEXTMIN
 10
1.000000000000000E+20
 20
1.000000000000000E+20
 30
1.000000000000000E+20
  9
$PEXTMAX
 10
-1.000000000000000E+20
 20
-1.000000000000000E+20
 30
-1.000000000000000E+20
  9
$PLIMMIN
 10
0.0
 20
0.0
  9
$PLIMMAX
 10
12.0
 20
9.0
  9
$UNITMODE
 70
     0
  9
$VISRETAIN
 70
     0
  9
$PLINEGEN
 70
     1
  9
$PSLTSCALE
 70
     0
  9
$TREEDEPTH
 70
  3020
  9
$CMLSTYLE
  2
Standard
  9
$CMLJUST
 70
     0
  9
$CMLSCALE
 40
1.0
  9
$PROXYGRAPHICS
 70
     0
  9
$MEASUREMENT
 70
     1
  9
$CELWEIGHT
370
    -1
  9
$ENDCAPS
280
     0
  9
$JOINSTYLE
280
     0
  9
$LWDISPLAY
290
     1
  9
$INSUNITS
 70
     4
  9
$HYPERLINKBASE
  1

  9
$STYLESHEET
  1

  9
$XEDIT
290
     1
  9
$CEPSNTYPE
380
     0
  9
$PSTYLEMODE
290
     1
  9
$FINGERPRINTGUID
  2
{27674C63-C7ED-4485-A887-883736F3E733}
  9
$VERSIONGUID
  2
{FAEB1C32-E019-11D5-929B-00C0DF256EC4}
  9
$EXTNAMES
290
     1
  9
$PSVPSCALE
 40
0.0
  9
$OLESTARTUP
290
     0
  0
ENDSEC
  0
SECTION
  2
CLASSES
  0
CLASS
  1
ACDBDICTIONARYWDFLT
  2
AcDbDictionaryWithDefault
  3
ObjectDBX Classes
 90
        0
280
     0
281
     0
  0
CLASS
  1
VISUALSTYLE
  2
AcDbVisualStyle
  3
ObjectDBX Classes
 90
     4095
280
     0
281
     0
  0
CLASS
  1
MATERIAL
  2
AcDbMaterial
  3
ObjectDBX Classes
 90
     1153
280
     0
281
     0
  0
CLASS
  1
SCALE
  2
AcDbScale
  3
ObjectDBX Classes
 90
     1153
280
     0
281
     0
  0
CLASS
  1
SUN
  2
AcDbSun
  3
SCENEOE
 90
     1153
280
     0
281
     0
  0
CLASS
  1
DICTIONARYVAR
  2
AcDbDictionaryVar
  3
ObjectDBX Classes
 90
        0
280
     0
281
     0
  0
CLASS
  1
ACDBPLACEHOLDER
  2
AcDbPlaceHolder
  3
ObjectDBX Classes
 90
        0
280
     0
281
     0
  0
CLASS
  1
LAYOUT
  2
AcDbLayout
  3
ObjectDBX Classes
 90
        0
280
     0
281
     0
  0
ENDSEC
  0
SECTION
  2
TABLES
  0
TABLE
  2
VPORT
  5
8
102
{ACAD_XDICTIONARY
360
370
102
}
330
0
100
AcDbSymbolTable
 70
     1
  0
VPORT
  5
29
330
8
100
AcDbSymbolTableRecord
100
AcDbViewportTableRecord
  2
*Active
 70
     0
 10
0.0
 20
0.0
 11
1.0
 21
1.0
 12
-0.000000000000032
 22
-0.3576824436699724
 13
0.0
 23
0.0
 14
0.5
 24
0.5
 15
0.5
 25
0.5
 16
0.0
 26
0.0
 36
1.0
 17
0.0
 27
0.0
 37
0.0
 40
281.4069579047839
 41
1.365765803594817
 42
50.0
 43
0.0
 44
0.0
 50
0.0
 51
0.0
 71
     0
 72
  1000
 73
     1
 74
     1
 75
     0
 76
     0
 77
     0
 78
     0
281
     0
 65
     1
110
0.0
120
0.0
130
0.0
111
1.0
121
0.0
131
0.0
112
0.0
122
1.0
132
0.0
 79
     0
146
0.0
  0
ENDTAB
  0
TABLE
  2
LTYPE
  5
5
330
0
100
AcDbSymbolTable
 70
    67
  0
LTYPE
  5
14
330
5
100
AcDbSymbolTableRecord
100
AcDbLinetypeTableRecord
  2
ByBlock
 70
     0
  3

 72
    65
 73
     0
 40
0.0
  0
LTYPE
  5
15
330
5
100
AcDbSymbolTableRecord
100
AcDbLinetypeTableRecord
  2
ByLayer
 70
     0
  3

 72
    65
 73
     0
 40
0.0
  0
LTYPE
  5
16
330
5
100
AcDbSymbolTableRecord
100
AcDbLinetypeTableRecord
  2
Continuous
 70
     0
  3
Solid line
 72
    65
 73
     0
 40
0.0
  0
LTYPE
  5
6B
330
5
100
AcDbSymbolTableRecord
100
AcDbLinetypeTableRecord
  2
HIDDENX2
 70
     0
  3
Hidden (2x) ____ ____ ____ ____ ____ ____ ____ 
 72
    65
 73
     2
 40
19.05
 49
12.7
 74
     0
 49
-6.35
 74
     0
  0
LTYPE
  5
6C
330
5
100
AcDbSymbolTableRecord
100
AcDbLinetypeTableRecord
  2
HIDDEN
 70
     0
  3
Hidden __ __ __ __ __ __ __ __ __ __ __ __ __ __
 72
    65
 73
     2
 40
9.524999999999999
 49
6.35
 74
     0
 49
-3.175
 74
     0
  0
LTYPE
  5
6D
330
5
100
AcDbSymbolTableRecord
100
AcDbLinetypeTableRecord
  2
HIDDEN2
 70
     0
  3
Hidden (.5x) _ _ _ _ _ _ _ _ _ _ _ _ _ _ _ _ _ 
 72
    65
 73
     2
 40
4.762499999999999
 49
3.175
 74
     0
 49
-1.5875
 74
     0
  0
LTYPE
  5
6E
330
5
100
AcDbSymbolTableRecord
100
AcDbLinetypeTableRecord
  2
DASHED
 70
     0
  3
Dashed __ __ __ __ __ __ __ __ __ __ __ __ __ _
 72
    65
 73
     2
 40
19.05
 49
12.7
 74
     0
 49
-6.35
 74
     0
  0
LTYPE
  5
6F
330
5
100
AcDbSymbolTableRecord
100
AcDbLinetypeTableRecord
  2
DASHED2
 70
     0
  3
Dashed (.5x) _ _ _ _ _ _ _ _ _ _ _ _ _ _ _ _ _ 
 72
    65
 73
     2
 40
9.524999999999999
 49
6.35
 74
     0
 49
-3.175
 74
     0
  0
LTYPE
  5
70
330
5
100
AcDbSymbolTableRecord
100
AcDbLinetypeTableRecord
  2
DASHEDX2
 70
     0
  3
Dashed (2x) ____  ____  ____  ____  ____  ___
 72
    65
 73
     2
 40
38.09999999999999
 49
25.4
 74
     0
 49
-12.7
 74
     0
  0
LTYPE
  5
71
330
5
100
AcDbSymbolTableRecord
100
AcDbLinetypeTableRecord
  2
DOTX2
 70
     0
  3
Dot (2x) .  .  .  .  .  .  .  .  .  .  .  .  .  .
 72
    65
 73
     2
 40
12.7
 49
0.0
 74
     0
 49
-12.7
 74
     0
  0
LTYPE
  5
72
330
5
100
AcDbSymbolTableRecord
100
AcDbLinetypeTableRecord
  2
DOT
 70
     0
  3
Dot . . . . . . . . . . . . . . . . . . . . . . . .
 72
    65
 73
     2
 40
6.35
 49
0.0
 74
     0
 49
-6.35
 74
     0
  0
LTYPE
  5
73
330
5
100
AcDbSymbolTableRecord
100
AcDbLinetypeTableRecord
  2
DOT2
 70
     0
  3
Dot (.5x) ........................................
 72
    65
 73
     2
 40
3.175
 49
0.0
 74
     0
 49
-3.175
 74
     0
  0
LTYPE
  5
74
330
5
100
AcDbSymbolTableRecord
100
AcDbLinetypeTableRecord
  2
CENTERX2
 70
     0
  3
Center (2x) ________  __  ________  __  _____
 72
    65
 73
     4
 40
101.6
 49
63.5
 74
     0
 49
-12.7
 74
     0
 49
12.7
 74
     0
 49
-12.7
 74
     0
  0
LTYPE
  5
75
330
5
100
AcDbSymbolTableRecord
100
AcDbLinetypeTableRecord
  2
CENTER
 70
     0
  3
Center ____ _ ____ _ ____ _ ____ _ ____ _ ____
 72
    65
 73
     4
 40
50.8
 49
31.75
 74
     0
 49
-6.35
 74
     0
 49
6.35
 74
     0
 49
-6.35
 74
     0
  0
LTYPE
  5
76
330
5
100
AcDbSymbolTableRecord
100
AcDbLinetypeTableRecord
  2
CENTER2
 70
     0
  3
Center (.5x) ___ _ ___ _ ___ _ ___ _ ___ _ ___
 72
    65
 73
     4
 40
28.575
 49
19.05
 74
     0
 49
-3.175
 74
     0
 49
3.175
 74
     0
 49
-3.175
 74
     0
  0
LTYPE
  5
77
330
5
100
AcDbSymbolTableRecord
100
AcDbLinetypeTableRecord
  2
DASHDOTX2
 70
     0
  3
Dash dot (2x) ____  .  ____  .  ____  .  ___
 72
    65
 73
     4
 40
50.8
 49
25.4
 74
     0
 49
-12.7
 74
     0
 49
0.0
 74
     0
 49
-12.7
 74
     0
  0
LTYPE
  5
78
330
5
100
AcDbSymbolTableRecord
100
AcDbLinetypeTableRecord
  2
DASHDOT
 70
     0
  3
Dash dot __ . __ . __ . __ . __ . __ . __ . __
 72
    65
 73
     4
 40
25.4
 49
12.7
 74
     0
 49
-6.35
 74
     0
 49
0.0
 74
     0
 49
-6.35
 74
     0
  0
LTYPE
  5
79
330
5
100
AcDbSymbolTableRecord
100
AcDbLinetypeTableRecord
  2
DASHDOT2
 70
     0
  3
Dash dot (.5x) _._._._._._._._._._._._._._._.
 72
    65
 73
     4
 40
12.7
 49
6.35
 74
     0
 49
-3.175
 74
     0
 49
0.0
 74
     0
 49
-3.175
 74
     0
  0
LTYPE
  5
7A
330
5
100
AcDbSymbolTableRecord
100
AcDbLinetypeTableRecord
  2
DIVIDEX2
 70
     0
  3
Divide (2x) ________  .  .  ________  .  .  _
 72
    65
 73
     6
 40
63.5
 49
25.4
 74
     0
 49
-12.7
 74
     0
 49
0.0
 74
     0
 49
-12.7
 74
     0
 49
0.0
 74
     0
 49
-12.7
 74
     0
  0
LTYPE
  5
7B
330
5
100
AcDbSymbolTableRecord
100
AcDbLinetypeTableRecord
  2
DIVIDE
 70
     0
  3
Divide ____ . . ____ . . ____ . . ____ . . ____
 72
    65
 73
     6
 40
31.75
 49
12.7
 74
     0
 49
-6.35
 74
     0
 49
0.0
 74
     0
 49
-6.35
 74
     0
 49
0.0
 74
     0
 49
-6.35
 74
     0
  0
LTYPE
  5
7C
330
5
100
AcDbSymbolTableRecord
100
AcDbLinetypeTableRecord
  2
DIVIDE2
 70
     0
  3
Divide (.5x) __..__..__..__..__..__..__..__.._
 72
    65
 73
     6
 40
15.875
 49
6.35
 74
     0
 49
-3.175
 74
     0
 49
0.0
 74
     0
 49
-3.175
 74
     0
 49
0.0
 74
     0
 49
-3.175
 74
     0
  0
LTYPE
  5
7D
330
5
100
AcDbSymbolTableRecord
100
AcDbLinetypeTableRecord
  2
BORDERX2
 70
     0
  3
Border (2x) ____  ____  .  ____  ____  .  ___
 72
    65
 73
     6
 40
88.89999999999999
 49
25.4
 74
     0
 49
-12.7
 74
     0
 49
25.4
 74
     0
 49
-12.7
 74
     0
 49
0.0
 74
     0
 49
-12.7
 74
     0
  0
LTYPE
  5
7E
330
5
100
AcDbSymbolTableRecord
100
AcDbLinetypeTableRecord
  2
BORDER
 70
     0
  3
Border __ __ . __ __ . __ __ . __ __ . __ __ .
 72
    65
 73
     6
 40
44.45
 49
12.7
 74
     0
 49
-6.35
 74
     0
 49
12.7
 74
     0
 49
-6.35
 74
     0
 49
0.0
 74
     0
 49
-6.35
 74
     0
  0
LTYPE
  5
7F
330
5
100
AcDbSymbolTableRecord
100
AcDbLinetypeTableRecord
  2
BORDER2
 70
     0
  3
Border (.5x) __.__.__.__.__.__.__.__.__.__.__.
 72
    65
 73
     6
 40
22.225
 49
6.35
 74
     0
 49
-3.175
 74
     0
 49
6.35
 74
     0
 49
-3.175
 74
     0
 49
0.0
 74
     0
 49
-3.175
 74
     0
  0
LTYPE
  5
80
330
5
100
AcDbSymbolTableRecord
100
AcDbLinetypeTableRecord
  2
PHANTOMX2
 70
     0
  3
Phantom (2x) ____________    ____    ____   _
 72
    65
 73
     6
 40
127.0
 49
63.5
 74
     0
 49
-12.7
 74
     0
 49
12.7
 74
     0
 49
-12.7
 74
     0
 49
12.7
 74
     0
 49
-12.7
 74
     0
  0
LTYPE
  5
81
330
5
100
AcDbSymbolTableRecord
100
AcDbLinetypeTableRecord
  2
PHANTOM
 70
     0
  3
Phantom ______  __  __  ______  __  __  ______ 
 72
    65
 73
     6
 40
63.5
 49
31.75
 74
     0
 49
-6.35
 74
     0
 49
6.35
 74
     0
 49
-6.35
 74
     0
 49
6.35
 74
     0
 49
-6.35
 74
     0
  0
LTYPE
  5
82
330
5
100
AcDbSymbolTableRecord
100
AcDbLinetypeTableRecord
  2
PHANTOM2
 70
     0
  3
Phantom (.5x) ___ _ _ ___ _ _ ___ _ _ ___ _ _
 72
    65
 73
     6
 40
31.75
 49
15.875
 74
     0
 49
-3.175
 74
     0
 49
3.175
 74
     0
 49
-3.175
 74
     0
 49
3.175
 74
     0
 49
-3.175
 74
     0
  0
LTYPE
  5
83
330
5
100
AcDbSymbolTableRecord
100
AcDbLinetypeTableRecord
  2
ACAD_ISO06W100
 70
     0
  3
ISO long-dash triple-dot ____ ... ____ ... ____
 72
    65
 73
     8
 40
36.0
 49
24.0
 74
     0
 49
-3.0
 74
     0
 49
0.0
 74
     0
 49
-3.0
 74
     0
 49
0.0
 74
     0
 49
-3.0
 74
     0
 49
0.0
 74
     0
 49
-3.0
 74
     0
  0
LTYPE
  5
84
330
5
100
AcDbSymbolTableRecord
100
AcDbLinetypeTableRecord
  2
ACAD_ISO13W100
 70
     0
  3
ISO double-dash double-dot __ __ . . __ __ . . _
 72
    65
 73
     8
 40
36.0
 49
12.0
 74
     0
 49
-3.0
 74
     0
 49
12.0
 74
     0
 49
-3.0
 74
     0
 49
0.0
 74
     0
 49
-3.0
 74
     0
 49
0.0
 74
     0
 49
-3.0
 74
     0
  0
LTYPE
  5
85
330
5
100
AcDbSymbolTableRecord
100
AcDbLinetypeTableRecord
  2
ACAD_ISO14W100
 70
     0
  3
ISO dash triple-dot __ . . . __ . . . __ . . . _
 72
    65
 73
     8
 40
24.0
 49
12.0
 74
     0
 49
-3.0
 74
     0
 49
0.0
 74
     0
 49
-3.0
 74
     0
 49
0.0
 74
     0
 49
-3.0
 74
     0
 49
0.0
 74
     0
 49
-3.0
 74
     0
  0
LTYPE
  5
86
330
5
100
AcDbSymbolTableRecord
100
AcDbLinetypeTableRecord
  2
ACAD_ISO02W100
 70
     0
  3
ISO dash __ __ __ __ __ __ __ __ __ __ __ __ __
 72
    65
 73
     2
 40
15.0
 49
12.0
 74
     0
 49
-3.0
 74
     0
  0
LTYPE
  5
87
330
5
100
AcDbSymbolTableRecord
100
AcDbLinetypeTableRecord
  2
ACAD_ISO03W100
 70
     0
  3
ISO dash space __    __    __    __    __    __
 72
    65
 73
     2
 40
30.0
 49
12.0
 74
     0
 49
-18.0
 74
     0
  0
LTYPE
  5
88
330
5
100
AcDbSymbolTableRecord
100
AcDbLinetypeTableRecord
  2
ACAD_ISO04W100
 70
     0
  3
ISO long-dash dot ____ . ____ . ____ . ____ . _
 72
    65
 73
     4
 40
30.0
 49
24.0
 74
     0
 49
-3.0
 74
     0
 49
0.0
 74
     0
 49
-3.0
 74
     0
  0
LTYPE
  5
89
330
5
100
AcDbSymbolTableRecord
100
AcDbLinetypeTableRecord
  2
ACAD_ISO05W100
 70
     0
  3
ISO long-dash double-dot ____ .. ____ .. ____ . 
 72
    65
 73
     6
 40
33.0
 49
24.0
 74
     0
 49
-3.0
 74
     0
 49
0.0
 74
     0
 49
-3.0
 74
     0
 49
0.0
 74
     0
 49
-3.0
 74
     0
  0
LTYPE
  5
8A
330
5
100
AcDbSymbolTableRecord
100
AcDbLinetypeTableRecord
  2
ACAD_ISO07W100
 70
     0
  3
ISO dot . . . . . . . . . . . . . . . . . . . . 
 72
    65
 73
     2
 40
3.0
 49
0.0
 74
     0
 49
-3.0
 74
     0
  0
LTYPE
  5
8B
330
5
100
AcDbSymbolTableRecord
100
AcDbLinetypeTableRecord
  2
ACAD_ISO08W100
 70
     0
  3
ISO long-dash short-dash ____ __ ____ __ ____ _
 72
    65
 73
     4
 40
36.0
 49
24.0
 74
     0
 49
-3.0
 74
     0
 49
6.0
 74
     0
 49
-3.0
 74
     0
  0
LTYPE
  5
8C
330
5
100
AcDbSymbolTableRecord
100
AcDbLinetypeTableRecord
  2
ACAD_ISO09W100
 70
     0
  3
ISO long-dash double-short-dash ____ __ __ ____
 72
    65
 73
     6
 40
45.0
 49
24.0
 74
     0
 49
-3.0
 74
     0
 49
6.0
 74
     0
 49
-3.0
 74
     0
 49
6.0
 74
     0
 49
-3.0
 74
     0
  0
LTYPE
  5
8D
330
5
100
AcDbSymbolTableRecord
100
AcDbLinetypeTableRecord
  2
ACAD_ISO10W100
 70
     0
  3
ISO dash dot __ . __ . __ . __ . __ . __ . __ . 
 72
    65
 73
     4
 40
18.0
 49
12.0
 74
     0
 49
-3.0
 74
     0
 49
0.0
 74
     0
 49
-3.0
 74
     0
  0
LTYPE
  5
8E
330
5
100
AcDbSymbolTableRecord
100
AcDbLinetypeTableRecord
  2
ACAD_ISO11W100
 70
     0
  3
ISO double-dash dot __ __ . __ __ . __ __ . __ _
 72
    65
 73
     6
 40
33.0
 49
12.0
 74
     0
 49
-3.0
 74
     0
 49
12.0
 74
     0
 49
-3.0
 74
     0
 49
0.0
 74
     0
 49
-3.0
 74
     0
  0
LTYPE
  5
8F
330
5
100
AcDbSymbolTableRecord
100
AcDbLinetypeTableRecord
  2
ACAD_ISO12W100
 70
     0
  3
ISO dash double-dot __ . . __ . . __ . . __ . . 
 72
    65
 73
     6
 40
21.0
 49
12.0
 74
     0
 49
-3.0
 74
     0
 49
0.0
 74
     0
 49
-3.0
 74
     0
 49
0.0
 74
     0
 49
-3.0
 74
     0
  0
LTYPE
  5
90
330
5
100
AcDbSymbolTableRecord
100
AcDbLinetypeTableRecord
  2
ACAD_ISO15W100
 70
     0
  3
ISO double-dash triple-dot __ __ . . . __ __ . .
 72
    65
 73
    10
 40
39.0
 49
12.0
 74
     0
 49
-3.0
 74
     0
 49
12.0
 74
     0
 49
-3.0
 74
     0
 49
0.0
 74
     0
 49
-3.0
 74
     0
 49
0.0
 74
     0
 49
-3.0
 74
     0
 49
0.0
 74
     0
 49
-3.0
 74
     0
  0
LTYPE
  5
91
330
5
100
AcDbSymbolTableRecord
100
AcDbLinetypeTableRecord
  2
JIS_02_0.7
 70
     0
  3
HIDDEN0.75 _ _ _ _ _ _ _ _ _ _ _ _ _ _ _ _ _ 
 72
    65
 73
     2
 40
1.35
 49
0.75
 74
     0
 49
-0.6
 74
     0
  0
LTYPE
  5
92
330
5
100
AcDbSymbolTableRecord
100
AcDbLinetypeTableRecord
  2
JIS_02_1.0
 70
     0
  3
HIDDEN01 _ _ _ _ _ _ _ _ _ _ _ _ _ _ _ _ _ 
 72
    65
 73
     2
 40
2.0
 49
1.0
 74
     0
 49
-1.0
 74
     0
  0
LTYPE
  5
93
330
5
100
AcDbSymbolTableRecord
100
AcDbLinetypeTableRecord
  2
JIS_02_1.2
 70
     0
  3
HIDDEN01.25  _ _ _ _ _ _ _ _ _ _ _ _ _ _ _ _ _ 
 72
    65
 73
     2
 40
2.5
 49
1.25
 74
     0
 49
-1.25
 74
     0
  0
LTYPE
  5
94
330
5
100
AcDbSymbolTableRecord
100
AcDbLinetypeTableRecord
  2
JIS_02_2.0
 70
     0
  3
HIDDEN02 __ __ __ __ __ __ __ __ __ __ __ 
 72
    65
 73
     2
 40
3.0
 49
2.0
 74
     0
 49
-1.0
 74
     0
  0
LTYPE
  5
95
330
5
100
AcDbSymbolTableRecord
100
AcDbLinetypeTableRecord
  2
JIS_02_4.0
 70
     0
  3
HIDDEN04 ____ ____ ____ ____ ____ ____ ____ 
 72
    65
 73
     2
 40
5.5
 49
4.0
 74
     0
 49
-1.5
 74
     0
  0
LTYPE
  5
96
330
5
100
AcDbSymbolTableRecord
100
AcDbLinetypeTableRecord
  2
JIS_08_11
 70
     0
  3
1SASEN11 ___ _ ___ _ ___ _ ___ _ ___ _ ___
 72
    65
 73
     4
 40
12.8
 49
11.0
 74
     0
 49
-0.6
 74
     0
 49
0.6
 74
     0
 49
-0.6
 74
     0
  0
LTYPE
  5
97
330
5
100
AcDbSymbolTableRecord
100
AcDbLinetypeTableRecord
  2
JIS_08_15
 70
     0
  3
1SASEN15 ____ _ ____ _ ____ _ ____ _ ____ 
 72
    65
 73
     4
 40
17.25
 49
15.0
 74
     0
 49
-0.75
 74
     0
 49
0.75
 74
     0
 49
-0.75
 74
     0
  0
LTYPE
  5
98
330
5
100
AcDbSymbolTableRecord
100
AcDbLinetypeTableRecord
  2
JIS_08_25
 70
     0
  3
1SASEN25 ________  __  ________  __  _____
 72
    65
 73
     4
 40
28.0
 49
25.0
 74
     0
 49
-1.125
 74
     0
 49
0.75
 74
     0
 49
-1.125
 74
     0
  0
LTYPE
  5
99
330
5
100
AcDbSymbolTableRecord
100
AcDbLinetypeTableRecord
  2
JIS_08_37
 70
     0
  3
1SASEN37 ________  __  ________  __  _____
 72
    65
 73
     4
 40
40.5
 49
37.5
 74
     0
 49
-1.125
 74
     0
 49
0.75
 74
     0
 49
-1.125
 74
     0
  0
LTYPE
  5
9A
330
5
100
AcDbSymbolTableRecord
100
AcDbLinetypeTableRecord
  2
JIS_08_50
 70
     0
  3
1SASEN50 _______________  __  ____________
 72
    65
 73
     4
 40
53.0
 49
50.0
 74
     0
 49
-1.125
 74
     0
 49
0.75
 74
     0
 49
-1.125
 74
     0
  0
LTYPE
  5
9B
330
5
100
AcDbSymbolTableRecord
100
AcDbLinetypeTableRecord
  2
JIS_09_08
 70
     0
  3
2SASEN8 __ _ _ __ _ _ __ _ _ __ _ _ __ _ _ 
 72
    65
 73
     6
 40
10.75
 49
8.0
 74
     0
 49
-0.55
 74
     0
 49
0.55
 74
     0
 49
-0.55
 74
     0
 49
0.55
 74
     0
 49
-0.55
 74
     0
  0
LTYPE
  5
9C
330
5
100
AcDbSymbolTableRecord
100
AcDbLinetypeTableRecord
  2
JIS_09_15
 70
     0
  3
2SASEN15 ___ _ _ ___ _ _ ___ _ _ ___ _ _ ___ 
 72
    65
 73
     6
 40
18.9
 49
15.0
 74
     0
 49
-0.9
 74
     0
 49
0.6
 74
     0
 49
-0.9
 74
     0
 49
0.6
 74
     0
 49
-0.9
 74
     0
  0
LTYPE
  5
9D
330
5
100
AcDbSymbolTableRecord
100
AcDbLinetypeTableRecord
  2
JIS_09_29
 70
     0
  3
2SASEN29 ______　__  __  ______　__  __  ___
 72
    65
 73
     6
 40
34.0
 49
29.0
 74
     0
 49
-1.2
 74
     0
 49
0.7
 74
     0
 49
-1.2
 74
     0
 49
0.7
 74
     0
 49
-1.2
 74
     0
  0
LTYPE
  5
9E
330
5
100
AcDbSymbolTableRecord
100
AcDbLinetypeTableRecord
  2
JIS_09_50
 70
     0
  3
2SASEN50 ____________　__  __  _____________
 72
    65
 73
     6
 40
55.0
 49
50.0
 74
     0
 49
-1.2
 74
     0
 49
0.7
 74
     0
 49
-1.2
 74
     0
 49
0.7
 74
     0
 49
-1.2
 74
     0
  0
LTYPE
  5
9F
330
5
100
AcDbSymbolTableRecord
100
AcDbLinetypeTableRecord
  2
SXF_破線
 70
     0
  3
02 dashed -- -- -- -- -- --
 72
    65
 73
     2
 40
7.5
 49
6.0
 74
     0
 49
-1.5
 74
     0
  0
LTYPE
  5
A0
330
5
100
AcDbSymbolTableRecord
100
AcDbLinetypeTableRecord
  2
SXF_跳び破線
 70
     0
  3
03 dashed_spaced --  --  --  --
 72
    65
 73
     2
 40
12.0
 49
6.0
 74
     0
 49
-6.0
 74
     0
  0
LTYPE
  5
A1
330
5
100
AcDbSymbolTableRecord
100
AcDbLinetypeTableRecord
  2
SXF_一点長鎖線
 70
     0
  3
04 long_dashed_dotted ---- . ---- . ----
 72
    65
 73
     4
 40
15.25
 49
12.0
 74
     0
 49
-1.5
 74
     0
 49
0.25
 74
     0
 49
-1.5
 74
     0
  0
LTYPE
  5
A2
330
5
100
AcDbSymbolTableRecord
100
AcDbLinetypeTableRecord
  2
SXF_二点長鎖線
 70
     0
  3
05 long_dashed_double-dotted ---- . . ---- 
 72
    65
 73
     6
 40
17.0
 49
12.0
 74
     0
 49
-1.5
 74
     0
 49
0.25
 74
     0
 49
-1.5
 74
     0
 49
0.25
 74
     0
 49
-1.5
 74
     0
  0
LTYPE
  5
A3
330
5
100
AcDbSymbolTableRecord
100
AcDbLinetypeTableRecord
  2
SXF_三点長鎖線
 70
     0
  3
06 long_dashed_triplicate-dotted ---- ... ---- 
 72
    65
 73
     8
 40
18.75
 49
12.0
 74
     0
 49
-1.5
 74
     0
 49
0.25
 74
     0
 49
-1.5
 74
     0
 49
0.25
 74
     0
 49
-1.5
 74
     0
 49
0.25
 74
     0
 49
-1.5
 74
     0
  0
LTYPE
  5
A4
330
5
100
AcDbSymbolTableRecord
100
AcDbLinetypeTableRecord
  2
SXF_点線
 70
     0
  3
07 dotted . . . . . . . . . . . . 
 72
    65
 73
     2
 40
1.75
 49
0.25
 74
     0
 49
-1.5
 74
     0
  0
LTYPE
  5
A5
330
5
100
AcDbSymbolTableRecord
100
AcDbLinetypeTableRecord
  2
SXF_一点鎖線
 70
     0
  3
08 chain ---- - --- - --- - ---
 72
    65
 73
     4
 40
18.5
 49
12.0
 74
     0
 49
-1.5
 74
     0
 49
3.5
 74
     0
 49
-1.5
 74
     0
  0
LTYPE
  5
A6
330
5
100
AcDbSymbolTableRecord
100
AcDbLinetypeTableRecord
  2
SXF_二点鎖線
 70
     0
  3
09 chain_double_dash ---- - - ---- - - ----
 72
    65
 73
     6
 40
23.5
 49
12.0
 74
     0
 49
-1.5
 74
     0
 49
3.5
 74
     0
 49
-1.5
 74
     0
 49
3.5
 74
     0
 49
-1.5
 74
     0
  0
LTYPE
  5
A7
330
5
100
AcDbSymbolTableRecord
100
AcDbLinetypeTableRecord
  2
SXF_一点短鎖線
 70
     0
  3
10 dashed_dotted -- . -- . -- . --
 72
    65
 73
     4
 40
9.25
 49
6.0
 74
     0
 49
-1.5
 74
     0
 49
0.25
 74
     0
 49
-1.5
 74
     0
  0
LTYPE
  5
A8
330
5
100
AcDbSymbolTableRecord
100
AcDbLinetypeTableRecord
  2
SXF_一点二短鎖線
 70
     0
  3
11 double-dashed_dotted -- -- . -- --
 72
    65
 73
     6
 40
16.75
 49
6.0
 74
     0
 49
-1.5
 74
     0
 49
6.0
 74
     0
 49
-1.5
 74
     0
 49
0.25
 74
     0
 49
-1.5
 74
     0
  0
LTYPE
  5
A9
330
5
100
AcDbSymbolTableRecord
100
AcDbLinetypeTableRecord
  2
SXF_二点短鎖線
 70
     0
  3
12 dashed_double_dotted -- . . -- . . --
 72
    65
 73
     6
 40
11.0
 49
6.0
 74
     0
 49
-1.5
 74
     0
 49
0.25
 74
     0
 49
-1.5
 74
     0
 49
0.25
 74
     0
 49
-1.5
 74
     0
  0
LTYPE
  5
AA
330
5
100
AcDbSymbolTableRecord
100
AcDbLinetypeTableRecord
  2
SXF_二点二短鎖線
 70
     0
  3
13 double-dashed_double-dotted -- -- . . -- --
 72
    65
 73
     8
 40
18.5
 49
6.0
 74
     0
 49
-1.5
 74
     0
 49
6.0
 74
     0
 49
-1.5
 74
     0
 49
0.25
 74
     0
 49
-1.5
 74
     0
 49
0.25
 74
     0
 49
-1.5
 74
     0
  0
LTYPE
  5
AB
330
5
100
AcDbSymbolTableRecord
100
AcDbLinetypeTableRecord
  2
SXF_三点短鎖線
 70
     0
  3
14 dashed triplicate-dotted -- . . . -- . . . --
 72
    65
 73
     8
 40
12.75
 49
6.0
 74
     0
 49
-1.5
 74
     0
 49
0.25
 74
     0
 49
-1.5
 74
     0
 49
0.25
 74
     0
 49
-1.5
 74
     0
 49
0.25
 74
     0
 49
-1.5
 74
     0
  0
LTYPE
  5
AC
330
5
100
AcDbSymbolTableRecord
100
AcDbLinetypeTableRecord
  2
SXF_三点二短鎖線
 70
     0
  3
15 double-dashed triplicate-dotted -- -- . . . -- -- 
 72
    65
 73
    10
 40
20.25
 49
6.0
 74
     0
 49
-1.5
 74
     0
 49
6.0
 74
     0
 49
-1.5
 74
     0
 49
0.25
 74
     0
 49
-1.5
 74
     0
 49
0.25
 74
     0
 49
-1.5
 74
     0
 49
0.25
 74
     0
 49
-1.5
 74
     0
  0
ENDTAB
  0
TABLE
  2
LAYER
  5
2
330
0
100
AcDbSymbolTable
 70
     2
  0
LAYER
  5
10
330
2
100
AcDbSymbolTableRecord
100
AcDbLayerTableRecord
  2
0
 70
     0
 62
     7
  6
Continuous
370
    -3
390
F
  0
LAYER
  5
AD
330
2
100
AcDbSymbolTableRecord
100
AcDbLayerTableRecord
  2
ZUWAKU
 70
     0
 62
     7
  6
Continuous
370
    -3
390
F
  0
ENDTAB
  0
TABLE
  2
STYLE
  5
3
330
0
100
AcDbSymbolTable
 70
     3
  0
STYLE
  5
11
330
3
100
AcDbSymbolTableRecord
100
AcDbTextStyleTableRecord
  2
Standard
 70
     0
 40
0.0
 41
1.0
 50
0.0
 71
     0
 42
0.2
  3
txt.shx
  4
bigfont.shx
  0
STYLE
  5
144
330
3
100
AcDbSymbolTableRecord
100
AcDbTextStyleTableRecord
  2
dcStyle0
 70
     0
 40
0.0
 41
0.77
 50
0.0
 71
     0
 42
0.2
  3
ＭＳ ゴシック
  4

1001
ACAD
1000
ＭＳ ゴシック
1071
    32802
  0
STYLE
  5
34C
330
3
100
AcDbSymbolTableRecord
100
AcDbTextStyleTableRecord
  2
dcStyle1
 70
     0
 40
0.0
 41
0.6160000000000001
 50
0.0
 71
     0
 42
0.2
  3
ＭＳ 明朝
  4

1001
ACAD
1000
ＭＳ 明朝
1071
    32802
  0
ENDTAB
  0
TABLE
  2
VIEW
  5
6
330
0
100
AcDbSymbolTable
 70
     0
  0
ENDTAB
  0
TABLE
  2
UCS
  5
7
330
0
100
AcDbSymbolTable
 70
     0
  0
ENDTAB
  0
TABLE
  2
APPID
  5
9
330
0
100
AcDbSymbolTable
 70
     2
  0
APPID
  5
12
330
9
100
AcDbSymbolTableRecord
100
AcDbRegAppTableRecord
  2
ACAD
 70
     0
  0
APPID
  5
6A
330
9
100
AcDbSymbolTableRecord
100
AcDbRegAppTableRecord
  2
DaFusionOut
 70
     0
  0
ENDTAB
  0
TABLE
  2
DIMSTYLE
  5
A
330
0
100
AcDbSymbolTable
 70
     1
100
AcDbDimStyleTable
  0
DIMSTYLE
105
27
330
A
100
AcDbSymbolTableRecord
100
AcDbDimStyleTableRecord
  2
Standard
 70
     0
178
     0
340
11
  0
ENDTAB
  0
TABLE
  2
BLOCK_RECORD
  5
1
330
0
100
AcDbSymbolTable
 70
    16
  0
BLOCK_RECORD
  5
1F
330
1
100
AcDbSymbolTableRecord
100
AcDbBlockTableRecord
  2
*Model_Space
340
22
  0
BLOCK_RECORD
  5
1B
330
1
100
AcDbSymbolTableRecord
100
AcDbBlockTableRecord
  2
*Paper_Space
340
1E
  0
BLOCK_RECORD
  5
23
330
1
100
AcDbSymbolTableRecord
100
AcDbBlockTableRecord
  2
*Paper_Space0
340
26
  0
BLOCK_RECORD
  5
AF
330
1
100
AcDbSymbolTableRecord
100
AcDbBlockTableRecord
  2
DC_GROUP_627-30 笠木戸当り_1
340
0
102
{BLKREFS
331
34A
102
}
  0
BLOCK_RECORD
  5
B2
330
1
100
AcDbSymbolTableRecord
100
AcDbBlockTableRecord
  2
DC_GROUP_627-30 笠木戸当り_2
340
0
102
{BLKREFS
331
357
102
}
  0
BLOCK_RECORD
  5
B5
330
1
100
AcDbSymbolTableRecord
100
AcDbBlockTableRecord
  2
DC_GROUP_627-30 笠木戸当り_3
340
0
102
{BLKREFS
331
D7
102
}
  0
BLOCK_RECORD
  5
B8
330
1
100
AcDbSymbolTableRecord
100
AcDbBlockTableRecord
  2
DC_GROUP_627-30 笠木戸当り_4
340
0
102
{BLKREFS
331
E2
102
}
  0
BLOCK_RECORD
  5
BB
330
1
100
AcDbSymbolTableRecord
100
AcDbBlockTableRecord
  2
DC_FILL_GROUP_5
340
0
102
{BLKREFS
331
E3
102
}
  0
BLOCK_RECORD
  5
BE
330
1
100
AcDbSymbolTableRecord
100
AcDbBlockTableRecord
  2
DC_FILL_GROUP_6
340
0
102
{BLKREFS
331
E4
102
}
  0
BLOCK_RECORD
  5
C1
330
1
100
AcDbSymbolTableRecord
100
AcDbBlockTableRecord
  2
DC_FILL_GROUP_7
340
0
102
{BLKREFS
331
E5
102
}
  0
BLOCK_RECORD
  5
C4
330
1
100
AcDbSymbolTableRecord
100
AcDbBlockTableRecord
  2
DC_FILL_GROUP_8
340
0
102
{BLKREFS
331
E6
102
}
  0
BLOCK_RECORD
  5
C7
330
1
100
AcDbSymbolTableRecord
100
AcDbBlockTableRecord
  2
DC_GROUP_627-30 笠木戸当り_9
340
0
102
{BLKREFS
331
DA
102
}
  0
BLOCK_RECORD
  5
CA
330
1
100
AcDbSymbolTableRecord
100
AcDbBlockTableRecord
  2
DC_GROUP_627-30 笠木戸当り_10
340
0
102
{BLKREFS
331
13C
102
}
  0
BLOCK_RECORD
  5
CD
330
1
100
AcDbSymbolTableRecord
100
AcDbBlockTableRecord
  2
DC_FILL_GROUP_11
340
0
102
{BLKREFS
331
13D
102
}
  0
BLOCK_RECORD
  5
D0
330
1
100
AcDbSymbolTableRecord
100
AcDbBlockTableRecord
  2
DC_GROUP_627-30 笠木戸当り_12
340
0
102
{BLKREFS
331
358
102
}
  0
BLOCK_RECORD
  5
D3
330
1
100
AcDbSymbolTableRecord
100
AcDbBlockTableRecord
  2
DC_GROUP_627-30 笠木戸当り_13
340
0
102
{BLKREFS
331
359
102
}
  0
BLOCK_RECORD
  5
228
330
1
100
AcDbSymbolTableRecord
100
AcDbBlockTableRecord
  2
_OPEN30
340
0
102
{BLKREFS
331
22E
331
230
331
232
331
234
331
236
331
238
331
23A
331
23C
331
23E
331
240
331
242
331
244
331
246
331
247
331
249
331
24A
331
24C
331
24D
331
24F
331
250
331
252
331
253
331
255
331
256
331
258
331
259
331
25B
331
25C
331
25E
331
25F
331
261
331
262
331
264
331
265
331
267
331
268
331
26A
331
26B
331
26D
331
26E
331
270
331
271
331
273
331
274
331
276
331
277
331
279
331
27A
331
27C
331
27D
331
27F
331
280
331
282
331
283
331
285
331
286
331
288
331
289
331
28B
331
28C
331
298
331
29A
102
}
  0
BLOCK_RECORD
  5
28E
330
1
100
AcDbSymbolTableRecord
100
AcDbBlockTableRecord
  2
_DOT
340
0
102
{BLKREFS
331
296
102
}
  0
ENDTAB
  0
ENDSEC
  0
SECTION
  2
BLOCKS
  0
BLOCK
  5
20
330
1F
100
AcDbEntity
  8
0
100
AcDbBlockBegin
  2
*Model_Space
 70
     0
 10
0.0
 20
0.0
 30
0.0
  3
*Model_Space
  1
*Model_Space
  0
ENDBLK
  5
21
330
1F
100
AcDbEntity
  8
0
100
AcDbBlockEnd
  0
BLOCK
  5
1C
330
1B
100
AcDbEntity
 67
     1
  8
0
100
AcDbBlockBegin
  2
*Paper_Space
 70
     0
 10
0.0
 20
0.0
 30
0.0
  3
*Paper_Space
  1
*Paper_Space
  0
ENDBLK
  5
1D
330
1B
100
AcDbEntity
 67
     1
  8
0
100
AcDbBlockEnd
  0
BLOCK
  5
24
330
23
100
AcDbEntity
  8
0
100
AcDbBlockBegin
  2
*Paper_Space0
 70
     0
 10
0.0
 20
0.0
 30
0.0
  3
*Paper_Space0
  1
*Paper_Space0
  0
ENDBLK
  5
25
330
23
100
AcDbEntity
  8
0
100
AcDbBlockEnd
  0
BLOCK
  5
B0
330
AF
100
AcDbEntity
  8
0
100
AcDbBlockBegin
  2
DC_GROUP_627-30 笠木戸当り_1
 70
     0
 10
0.0
 20
0.0
 30
0.0
  3
DC_GROUP_627-30 笠木戸当り_1
  1
DC_GROUP_627-30 笠木戸当り_1
  0
LINE
  5
D6
330
AF
100
AcDbEntity
  8
ZUWAKU
  6
Continuous
 62
     6
370
    25
100
AcDbLine
 10
-188.4
 20
131.4977303481027
 30
0.0
 11
-14.1929777645665
 21
131.4977303481027
 31
0.0
  0
ENDBLK
  5
B1
330
AF
100
AcDbEntity
  8
0
100
AcDbBlockEnd
  0
BLOCK
  5
B3
330
B2
100
AcDbEntity
  8
0
100
AcDbBlockBegin
  2
DC_GROUP_627-30 笠木戸当り_2
 70
     0
 10
0.0
 20
0.0
 30
0.0
  3
DC_GROUP_627-30 笠木戸当り_2
  1
DC_GROUP_627-30 笠木戸当り_2
  0
INSERT
  5
D7
330
B2
100
AcDbEntity
  8
ZUWAKU
  6
Continuous
100
AcDbBlockReference
  2
DC_GROUP_627-30 笠木戸当り_3
 10
0.0
 20
0.0
 30
0.0
  0
LINE
  5
D8
330
B2
100
AcDbEntity
  8
ZUWAKU
  6
Continuous
 62
     6
370
    25
100
AcDbLine
 10
5.699842558461039
 20
131.0977303481027
 30
0.0
 11
188.0
 21
131.0977303481027
 31
0.0
  0
LINE
  5
D9
330
B2
100
AcDbEntity
  8
ZUWAKU
  6
Continuous
 62
     6
370
    25
100
AcDbLine
 10
-188.0000000000001
 20
-137.9022696518972
 30
0.0
 11
-188.0
 21
131.0977303481027
 31
0.0
  0
INSERT
  5
DA
330
B2
100
AcDbEntity
  8
0
  6
Continuous
100
AcDbBlockReference
  2
DC_GROUP_627-30 笠木戸当り_9
 10
0.0
 20
0.0
 30
0.0
  0
ENDBLK
  5
B4
330
B2
100
AcDbEntity
  8
0
100
AcDbBlockEnd
  0
BLOCK
  5
B6
330
B5
100
AcDbEntity
  8
0
100
AcDbBlockBegin
  2
DC_GROUP_627-30 笠木戸当り_3
 70
     0
 10
0.0
 20
0.0
 30
0.0
  3
DC_GROUP_627-30 笠木戸当り_3
  1
DC_GROUP_627-30 笠木戸当り_3
  0
LINE
  5
DB
330
B5
100
AcDbEntity
  8
ZUWAKU
  6
Continuous
 62
     6
370
    18
100
AcDbLine
 10
-15.18729048293021
 20
127.7869047645574
 30
0.0
 11
4.812709517069791
 21
127.7869047645574
 31
0.0
  0
LINE
  5
DC
330
B5
100
AcDbEntity
  8
ZUWAKU
  6
Continuous
 62
     6
370
    18
100
AcDbLine
 10
-15.18729048293021
 20
127.7869047645574
 30
0.0
 11
4.812709517069791
 21
127.7869047645574
 31
0.0
  0
LINE
  5
DD
330
B5
100
AcDbEntity
  8
ZUWAKU
  6
Continuous
 62
     6
370
    18
100
AcDbLine
 10
-15.18729048293021
 20
127.7869047645574
 30
0.0
 11
-13.25805629742614
 21
134.9869047645574
 31
0.0
  0
LINE
  5
DE
330
B5
100
AcDbEntity
  8
ZUWAKU
  6
Continuous
 62
     6
370
    18
100
AcDbLine
 10
4.812709517069791
 20
127.7869047645574
 30
0.0
 11
6.741943702573863
 21
134.9869047645574
 31
0.0
  0
ARC
  5
DF
330
B5
100
AcDbEntity
  8
ZUWAKU
  6
Continuous
 62
     6
370
    18
100
AcDbCircle
 10
-3.258056297426137
 20
132.5638278414805
 30
0.0
 40
5.023076923076923
100
AcDbArc
 50
28.84154625502196
 51
151.1584537449781
  0
LINE
  5
E0
330
B5
100
AcDbEntity
  8
ZUWAKU
  6
Continuous
 62
     6
370
    18
100
AcDbLine
 10
1.141943702573869
 20
134.9869047645574
 30
0.0
 11
6.741943702573863
 21
134.9869047645574
 31
0.0
  0
LINE
  5
E1
330
B5
100
AcDbEntity
  8
ZUWAKU
  6
Continuous
 62
     6
370
    18
100
AcDbLine
 10
-13.25805629742614
 20
134.9869047645574
 30
0.0
 11
-7.658056297426128
 21
134.9869047645574
 31
0.0
  0
INSERT
  5
E2
330
B5
100
AcDbEntity
  8
ZUWAKU
  6
Continuous
100
AcDbBlockReference
  2
DC_GROUP_627-30 笠木戸当り_4
 10
0.0
 20
0.0
 30
0.0
  0
INSERT
  5
E3
330
B5
100
AcDbEntity
  8
ZUWAKU
  6
Continuous
100
AcDbBlockReference
  2
DC_FILL_GROUP_5
 10
0.0
 20
0.0
 30
0.0
  0
INSERT
  5
E4
330
B5
100
AcDbEntity
  8
ZUWAKU
  6
Continuous
100
AcDbBlockReference
  2
DC_FILL_GROUP_6
 10
0.0
 20
0.0
 30
0.0
  0
INSERT
  5
E5
330
B5
100
AcDbEntity
  8
ZUWAKU
  6
Continuous
100
AcDbBlockReference
  2
DC_FILL_GROUP_7
 10
0.0
 20
0.0
 30
0.0
  0
INSERT
  5
E6
330
B5
100
AcDbEntity
  8
ZUWAKU
  6
Continuous
100
AcDbBlockReference
  2
DC_FILL_GROUP_8
 10
0.0
 20
0.0
 30
0.0
  0
HATCH
  5
E7
330
B5
100
AcDbEntity
  8
ZUWAKU
 62
     6
100
AcDbHatch
 10
0.0
 20
0.0
 30
0.0
210
0.0
220
0.0
230
1.0
  2
SOLID
 70
     1
 71
     0
 91
        2
 92
        0
 93
        7
 72
     1
 10
-10.61644406058091
 20
133.081680337099
 11
-9.148769632821281
 21
133.081680337099
 72
     2
 10
-9.214615370495471
 20
132.6706558095067
 40
0.4162653281889734
 50
279.101396467581
 51
341.8598114989512
 73
     0
 72
     2
 10
-9.458184903820401
 20
132.6210539412675
 40
0.6637926737302501
 50
344.3376004792017
 51
377.2813944566045
 73
     0
 72
     2
 10
-9.796034832635987
 20
132.7006073304519
 40
1.010318374566457
 50
15.89745315179078
 51
49.94045683781776
 73
     0
 72
     2
 10
-9.66924191206301
 20
132.5212802327218
 40
0.7916770020377544
 50
48.61101998666827
 51
81.33918089668116
 73
     0
 72
     1
 10
-9.550027375135045
 20
131.7386306497407
 11
-10.97631313970343
 21
131.7386306497407
 72
     1
 10
-10.97631313970343
 20
131.7386306497407
 11
-10.61644406058091
 21
133.081680337099
 97
        0
 92
        0
 93
        7
 72
     1
 10
-11.10883290111839
 20
131.2440601671332
 11
-9.790267383885867
 21
131.2440601671332
 72
     2
 10
-9.796303065688356
 20
130.6394317120964
 40
0.6046585797745943
 50
270.5719340607648
 51
313.3452220316362
 73
     0
 72
     2
 10
-9.81044415134673
 20
130.6974914522775
 40
0.574334497943418
 50
318.3531395132113
 51
368.8750120922202
 73
     0
 72
     2
 10
-10.27470825576618
 20
130.7236010828962
 40
1.038080399406426
 50
6.34468265029667
 51
45.39248346201526
 73
     0
 72
     2
 10
-10.22628606091733
 20
130.6563359917389
 40
0.9562729630134257
 50
44.62774037308801
 51
85.94856699901332
 73
     0
 72
     1
 10
-10.15872352661223
 20
129.7024527264759
 11
-11.52190536988831
 21
129.7024527264759
 72
     1
 10
-11.52190536988831
 20
129.7024527264759
 11
-11.10883290111839
 21
131.2440601671332
 97
        0
 75
     0
 76
     1
 98
        0
  0
HATCH
  5
E8
330
B5
100
AcDbEntity
  8
ZUWAKU
 62
     6
100
AcDbHatch
 10
0.0
 20
0.0
 30
0.0
210
0.0
220
0.0
230
1.0
  2
SOLID
 70
     1
 71
     0
 91
        1
 92
        0
 93
       12
 72
     1
 10
-6.793335074500064
 20
133.5254744099523
 11
-4.06388643049422
 21
133.5254744099523
 72
     1
 10
-4.06388643049422
 20
133.5254744099523
 11
-4.183074453479151
 21
133.0806586525188
 72
     1
 10
-4.183074453479151
 20
133.0806586525188
 11
-6.31491778350299
 21
133.0806586525188
 72
     1
 10
-6.31491778350299
 20
133.0806586525188
 11
-6.67831224361777
 21
131.7244520641814
 72
     1
 10
-6.67831224361777
 20
131.7244520641814
 11
-4.687965074339083
 21
131.7244520641814
 72
     1
 10
-4.687965074339083
 20
131.7244520641814
 11
-4.822471841115888
 21
131.2224659766085
 72
     1
 10
-4.822471841115888
 20
131.2224659766085
 11
-6.812819010394575
 21
131.2224659766085
 72
     1
 10
-6.812819010394575
 20
131.2224659766085
 11
-7.224346239903107
 21
129.6866254473846
 72
     1
 10
-7.224346239903107
 20
129.6866254473846
 11
-5.092502909879268
 21
129.6866254473846
 72
     1
 10
-5.092502909879268
 20
129.6866254473846
 11
-5.206494156524529
 21
129.2612043232864
 72
     1
 10
-5.206494156524529
 20
129.2612043232864
 11
-7.935371758038853
 21
129.2633354828951
 72
     1
 10
-7.935371758038853
 20
129.2633354828951
 11
-6.793335074500064
 21
133.5254744099523
 97
        0
 75
     0
 76
     1
 98
        0
  0
HATCH
  5
E9
330
B5
100
AcDbEntity
  8
ZUWAKU
 62
     6
100
AcDbHatch
 10
0.0
 20
0.0
 30
0.0
210
0.0
220
0.0
230
1.0
  2
SOLID
 70
     1
 71
     0
 91
        1
 92
        0
 93
       30
 72
     1
 10
-3.78690972180226
 20
130.5224816688588
 11
-3.224583528464573
 21
130.5224816688588
 72
     2
 10
-0.7834995687350994
 20
129.9471183586793
 40
2.50797405033412
 50
166.7374506696342
 51
174.0346960170799
 73
     1
 72
     2
 10
-2.859513642208555
 20
130.1334558390303
 40
0.4249267598038105
 50
169.9289351766546
 51
229.7688796832028
 73
     1
 72
     2
 10
-2.666761737496481
 20
130.3875292655661
 40
0.7435841409637962
 50
231.0745478687068
 51
262.6716666561709
 73
     1
 72
     2
 10
-2.422436317866786
 20
131.4537938908353
 40
1.835386079784519
 50
259.3507178335936
 51
286.2294064476557
 73
     1
 72
     2
 10
-2.153509175754112
 20
130.5924258088115
 40
0.9333459318929238
 50
285.1567838305783
 51
336.8654773103671
 73
     1
 72
     2
 10
-1.728523901164363
 20
130.3758570214736
 40
0.4585784011879434
 50
340.8894722365171
 51
392.6647144674489
 73
     1
 72
     2
 10
-1.862092629016691
 20
130.2253186631512
 40
0.654555745366824
 50
37.4531125804551
 51
51.10339143266309
 73
     1
 72
     2
 10
-2.632602625983446
 20
129.2468346376588
 40
1.89996405303543
 50
51.54771738514115
 51
61.04207824187351
 73
     1
 72
     1
 10
-1.712702415929059
 20
130.909256667821
 11
-2.857637180679363
 21
131.5608465538943
 72
     2
 10
-2.606641010930637
 20
132.1068388480489
 40
0.6009215111016437
 50
114.6885460662001
 51
173.6067558985703
 73
     0
 72
     2
 10
-1.809879857684515
 20
132.094259640641
 40
1.395004113623998
 50
177.7678039195354
 51
219.749472941094
 73
     0
 72
     2
 10
-1.712882617490692
 20
132.048339570572
 40
1.499181071149208
 50
218.7283245909845
 51
258.8091158160378
 73
     0
 72
     2
 10
-1.476092526492434
 20
130.9420584126249
 40
2.630442027257921
 50
258.4261314493467
 51
281.661165410633
 73
     0
 72
     2
 10
-1.07571535671465
 20
132.6637227764344
 40
0.8645138922101454
 50
278.735536649605
 51
379.106672884661
 73
     0
 72
     1
 10
-0.2588268460625014
 20
132.3807432171216
 11
-0.828889824710989
 21
132.3807432171216
 72
     2
 10
-1.369157678896155
 20
132.5661083324822
 40
0.5711826155079285
 50
341.0629799776079
 51
387.6071696008514
 73
     1
 72
     2
 10
-1.31851948913621
 20
132.5433184379326
 40
0.5386432608505282
 50
32.25654187658522
 51
80.51431194909222
 73
     1
 72
     2
 10
-1.557756208703897
 20
131.3632260160056
 40
1.742520441859646
 50
79.15011896131766
 51
108.0664376272099
 73
     1
 72
     2
 10
-1.833441979590594
 20
132.2918451530955
 40
0.7746216927719662
 50
109.9817183681289
 51
173.1724334146028
 73
     1
 72
     2
 10
-2.283262736295183
 20
132.32551277749
 40
0.3246080018075697
 50
169.6318053873936
 51
229.3606448632574
 73
     1
 72
     1
 10
-2.494678496184883
 20
132.0791923940303
 11
-1.108454353672086
 21
131.2797391624018
 72
     2
 10
-1.533132723280254
 20
130.5371454429522
 40
0.8554514304032861
 50
299.7646008998901
 51
324.2724832207935
 73
     0
 72
     2
 10
-1.405876864626978
 20
130.5560446692498
 40
0.7434509898745061
 50
319.7233371318061
 51
372.8486294546467
 73
     0
 72
     2
 10
-1.868903466724453
 20
130.5901924075046
 40
1.204494288996884
 50
9.532534887747325
 51
49.40615071678932
 73
     0
 72
     2
 10
-1.938069692842912
 20
130.517858724981
 40
1.198718270853014
 50
44.64060832750974
 51
63.21947441975042
 73
     0
 72
     2
 10
-2.345970515417255
 20
131.3504893434705
 40
2.125858195144981
 50
63.51629194665468
 51
89.83153432827561
 73
     0
 72
     2
 10
-2.537347971461981
 20
132.5227850078217
 40
3.304060398726554
 50
86.57088082813499
 51
99.59550348876685
 73
     0
 72
     2
 10
-2.963001710900193
 20
130.2116731678471
 40
0.9549520550140204
 50
97.52773837286186
 51
155.7356128656445
 73
     0
 72
     2
 10
-2.558254893119924
 20
130.087750101634
 40
1.30329744248432
 50
168.1104689066824
 51
199.4851673102285
 73
     0
 97
        0
 75
     0
 76
     1
 98
        0
  0
HATCH
  5
EA
330
B5
100
AcDbEntity
  8
ZUWAKU
 62
     6
100
AcDbHatch
 10
0.0
 20
0.0
 30
0.0
210
0.0
220
0.0
230
1.0
  2
SOLID
 70
     1
 71
     0
 91
        1
 92
        0
 93
        8
 72
     1
 10
0.8840602143685317
 20
133.5257500175911
 11
4.28182652491876
 21
133.5257500175911
 72
     1
 10
4.28182652491876
 20
133.5257500175911
 11
4.162114952616179
 21
133.0789803475039
 72
     1
 10
4.162114952616179
 20
133.0789803475039
 11
2.752636490468075
 21
133.0789803475039
 72
     1
 10
2.752636490468075
 20
133.0789803475039
 11
1.728354297797434
 21
129.256307163169
 72
     1
 10
1.728354297797434
 20
129.256307163169
 11
1.153476913781705
 21
129.256307163169
 72
     1
 10
1.153476913781705
 20
129.256307163169
 11
2.177759106452345
 21
133.0789803475039
 72
     1
 10
2.177759106452345
 20
133.0789803475039
 11
0.7643486420659484
 21
133.0789803475039
 72
     1
 10
0.7643486420659485
 20
133.0789803475039
 11
0.8840602143685317
 21
133.5257500175911
 97
        0
 75
     0
 76
     1
 98
        0
  0
ENDBLK
  5
B7
330
B5
100
AcDbEntity
  8
0
100
AcDbBlockEnd
  0
BLOCK
  5
B9
330
B8
100
AcDbEntity
  8
0
100
AcDbBlockBegin
  2
DC_GROUP_627-30 笠木戸当り_4
 70
     0
 10
0.0
 20
0.0
 30
0.0
  3
DC_GROUP_627-30 笠木戸当り_4
  1
DC_GROUP_627-30 笠木戸当り_4
  0
LINE
  5
EB
330
B8
100
AcDbEntity
  8
ZUWAKU
  6
Continuous
 62
     6
370
    18
100
AcDbLine
 10
-12.95112550223455
 20
134.5869047645574
 30
0.0
 11
-7.414978235591434
 21
134.5869047645574
 31
0.0
  0
ARC
  5
EC
330
B8
100
AcDbEntity
  8
ZUWAKU
  6
Continuous
 62
     6
370
    18
100
AcDbCircle
 10
-3.258056297426137
 20
132.5638278414805
 30
0.0
 40
4.623076923076923
100
AcDbArc
 50
25.95110613512598
 51
154.048893864874
  0
LINE
  5
ED
330
B8
100
AcDbEntity
  8
ZUWAKU
  6
Continuous
 62
     6
370
    18
100
AcDbLine
 10
0.8988656407391744
 20
134.5869047645574
 30
0.0
 11
6.220653553437387
 21
134.5869047645574
 31
0.0
  0
LINE
  5
EE
330
B8
100
AcDbEntity
  8
ZUWAKU
  6
Continuous
 62
     6
370
    18
100
AcDbLine
 10
6.220653553437387
 20
134.5869047645574
 30
0.0
 11
4.505778721878201
 21
128.1869047645574
 31
0.0
  0
LINE
  5
EF
330
B8
100
AcDbEntity
  8
ZUWAKU
  6
Continuous
 62
     6
370
    18
100
AcDbLine
 10
4.505778721878201
 20
128.1869047645574
 30
0.0
 11
-14.66600033379373
 21
128.1869047645574
 31
0.0
  0
LINE
  5
F0
330
B8
100
AcDbEntity
  8
ZUWAKU
  6
Continuous
 62
     6
370
    18
100
AcDbLine
 10
-14.66600033379373
 20
128.1869047645574
 30
0.0
 11
-12.95112550223455
 21
134.5869047645574
 31
0.0
  0
ENDBLK
  5
BA
330
B8
100
AcDbEntity
  8
0
100
AcDbBlockEnd
  0
BLOCK
  5
BC
330
BB
100
AcDbEntity
  8
0
100
AcDbBlockBegin
  2
DC_FILL_GROUP_5
 70
     0
 10
0.0
 20
0.0
 30
0.0
  3
DC_FILL_GROUP_5
  1
DC_FILL_GROUP_5
  0
LINE
  5
F1
330
BB
100
AcDbEntity
  8
ZUWAKU
  6
Continuous
 62
     6
370
    18
100
AcDbLine
 10
-11.09005816370822
 20
133.5251988023135
 30
0.0
 11
-12.23122901015888
 21
129.2662912232432
 31
0.0
  0
LINE
  5
F2
330
BB
100
AcDbEntity
  8
ZUWAKU
  6
Continuous
 62
     6
370
    18
100
AcDbLine
 10
-10.6164440605809
 20
133.0816803370989
 30
0.0
 11
-9.14876963282127
 21
133.0816803370989
 31
0.0
  0
LINE
  5
F3
330
BB
100
AcDbEntity
  8
ZUWAKU
  6
Continuous
 62
     6
370
    18
100
AcDbLine
 10
-10.97631313970342
 20
131.7386306497407
 30
0.0
 11
-9.550027375135045
 21
131.7386306497407
 31
0.0
  0
LINE
  5
F4
330
BB
100
AcDbEntity
  8
ZUWAKU
  6
Continuous
 62
     6
370
    18
100
AcDbLine
 10
-11.10883290111838
 20
131.2440601671331
 30
0.0
 11
-9.790267383885862
 21
131.2440601671331
 31
0.0
  0
LINE
  5
F5
330
BB
100
AcDbEntity
  8
ZUWAKU
  6
Continuous
 62
     6
370
    18
100
AcDbLine
 10
-11.5219053698883
 20
129.7024527264759
 30
0.0
 11
-10.15872352661222
 21
129.7024527264759
 31
0.0
  0
LINE
  5
F6
330
BB
100
AcDbEntity
  8
ZUWAKU
  6
Continuous
 62
     6
370
    18
100
AcDbLine
 10
-12.23122901015888
 20
129.2662912232432
 30
0.0
 11
-10.16519154196168
 21
129.2662912232432
 31
0.0
  0
LINE
  5
F7
330
BB
100
AcDbEntity
  8
ZUWAKU
  6
Continuous
 62
     6
370
    18
100
AcDbLine
 10
-11.09005816370822
 20
133.5251988023135
 30
0.0
 11
-9.008532940668204
 21
133.5251988023135
 31
0.0
  0
LINE
  5
F8
330
BB
100
AcDbEntity
  8
ZUWAKU
  6
Continuous
 62
     6
370
    18
100
AcDbLine
 10
-10.6164264363961
 20
133.0817461114521
 30
0.0
 11
-10.97631313970342
 21
131.7386306497407
 31
0.0
  0
LINE
  5
F9
330
BB
100
AcDbEntity
  8
ZUWAKU
  6
Continuous
 62
     6
370
    18
100
AcDbLine
 10
-11.10883290111838
 20
131.2440601671331
 30
0.0
 11
-11.5219053698883
 21
129.7024527264759
 31
0.0
  0
ARC
  5
FA
330
BB
100
AcDbEntity
  8
ZUWAKU
  6
Continuous
 62
     6
370
    25
100
AcDbCircle
 10
-9.002622178133166
 20
132.6785087326828
 30
0.0
 40
0.8467107009627803
100
AcDbArc
 50
36.60229733366693
 51
90.39997663577897
  0
ARC
  5
FB
330
BB
100
AcDbEntity
  8
ZUWAKU
  6
Continuous
 62
     6
370
    25
100
AcDbCircle
 10
-8.925577248175813
 20
132.7881680315858
 30
0.0
 40
0.7207048013734642
100
AcDbArc
 50
359.9092480053928
 51
33.25383823050022
  0
ARC
  5
FC
330
BB
100
AcDbEntity
  8
ZUWAKU
  6
Continuous
 62
     6
370
    25
100
AcDbCircle
 10
-9.536471115343986
 20
132.7808171941425
 30
0.0
 40
1.331618957837778
100
AcDbArc
 50
312.67901524403
 51
0.6894022979390294
  0
ARC
  5
FD
330
BB
100
AcDbEntity
  8
ZUWAKU
  6
Continuous
 62
     6
370
    25
100
AcDbCircle
 10
-9.683317700826038
 20
132.9921228479682
 30
0.0
 40
1.586901292237804
100
AcDbArc
 50
289.646728879067
 51
311.4048962840303
  0
ARC
  5
FE
330
BB
100
AcDbEntity
  8
ZUWAKU
  6
Continuous
 62
     6
370
    25
100
AcDbCircle
 10
-9.370919407783049
 20
130.8008571052884
 30
0.0
 40
0.7310027855036054
100
AcDbArc
 50
15.48798517877331
 51
72.39045551596023
  0
ARC
  5
FF
330
BB
100
AcDbEntity
  8
ZUWAKU
  6
Continuous
 62
     6
370
    25
100
AcDbCircle
 10
-9.770458699227675
 20
130.7361456582713
 30
0.0
 40
1.134180359811863
100
AcDbArc
 50
333.5932683206109
 51
13.24798338764212
  0
ARC
  5
100
330
BB
100
AcDbEntity
  8
ZUWAKU
  6
Continuous
 62
     6
370
    25
100
AcDbCircle
 10
-10.24940349796647
 20
130.8538501593707
 30
0.0
 40
1.619078012600534
100
AcDbArc
 50
308.3521588912623
 51
337.4032107594748
  0
ARC
  5
101
330
BB
100
AcDbEntity
  8
ZUWAKU
  6
Continuous
 62
     6
370
    25
100
AcDbCircle
 10
-10.15568308085626
 20
130.730297248174
 30
0.0
 40
1.464036902494674
100
AcDbArc
 50
269.6278792425639
 51
308.4761041721405
  0
ARC
  5
102
330
BB
100
AcDbEntity
  8
ZUWAKU
  6
Continuous
 62
     6
370
    25
100
AcDbCircle
 10
-9.214615370495466
 20
132.6706558095067
 30
0.0
 40
0.4162653281889734
100
AcDbArc
 50
18.14018850104889
 51
80.89860353241913
  0
ARC
  5
103
330
BB
100
AcDbEntity
  8
ZUWAKU
  6
Continuous
 62
     6
370
    25
100
AcDbCircle
 10
-9.458184903820396
 20
132.6210539412674
 30
0.0
 40
0.6637926737302501
100
AcDbArc
 50
342.718605543397
 51
15.66239952079831
  0
ARC
  5
104
330
BB
100
AcDbEntity
  8
ZUWAKU
  6
Continuous
 62
     6
370
    25
100
AcDbCircle
 10
-9.796034832635982
 20
132.7006073304519
 30
0.0
 40
1.010318374566457
100
AcDbArc
 50
310.0595431621818
 51
344.1025468482097
  0
ARC
  5
105
330
BB
100
AcDbEntity
  8
ZUWAKU
  6
Continuous
 62
     6
370
    25
100
AcDbCircle
 10
-9.669241912063
 20
132.5212802327218
 30
0.0
 40
0.7916770020377544
100
AcDbArc
 50
278.6608191033192
 51
311.3889800133315
  0
ARC
  5
106
330
BB
100
AcDbEntity
  8
ZUWAKU
  6
Continuous
 62
     6
370
    25
100
AcDbCircle
 10
-9.796303065688349
 20
130.6394317120963
 30
0.0
 40
0.6046585797745943
100
AcDbArc
 50
46.65477796836485
 51
89.4280659392352
  0
ARC
  5
107
330
BB
100
AcDbEntity
  8
ZUWAKU
  6
Continuous
 62
     6
370
    25
100
AcDbCircle
 10
-9.81044415134673
 20
130.6974914522774
 30
0.0
 40
0.574334497943418
100
AcDbArc
 50
351.1249879077801
 51
41.6468604867896
  0
ARC
  5
108
330
BB
100
AcDbEntity
  8
ZUWAKU
  6
Continuous
 62
     6
370
    25
100
AcDbCircle
 10
-10.27470825576617
 20
130.7236010828962
 30
0.0
 40
1.038080399406426
100
AcDbArc
 50
314.6075165379853
 51
353.655317349704
  0
ARC
  5
109
330
BB
100
AcDbEntity
  8
ZUWAKU
  6
Continuous
 62
     6
370
    25
100
AcDbCircle
 10
-10.22628606091732
 20
130.6563359917389
 30
0.0
 40
0.9562729630134257
100
AcDbArc
 50
274.0514330009866
 51
315.3722596269116
  0
ENDBLK
  5
BD
330
BB
100
AcDbEntity
  8
0
100
AcDbBlockEnd
  0
BLOCK
  5
BF
330
BE
100
AcDbEntity
  8
0
100
AcDbBlockBegin
  2
DC_FILL_GROUP_6
 70
     0
 10
0.0
 20
0.0
 30
0.0
  3
DC_FILL_GROUP_6
  1
DC_FILL_GROUP_6
  0
LINE
  5
10A
330
BE
100
AcDbEntity
  8
ZUWAKU
  6
Continuous
 62
     6
370
    18
100
AcDbLine
 10
-5.206494156524528
 20
129.2612043232864
 30
0.0
 11
-7.935371758038855
 21
129.2633354828952
 31
0.0
  0
LINE
  5
10B
330
BE
100
AcDbEntity
  8
ZUWAKU
  6
Continuous
 62
     6
370
    18
100
AcDbLine
 10
-6.314917783502992
 20
133.0806586525188
 30
0.0
 11
-4.183074453479151
 21
133.0806586525188
 31
0.0
  0
LINE
  5
10C
330
BE
100
AcDbEntity
  8
ZUWAKU
  6
Continuous
 62
     6
370
    18
100
AcDbLine
 10
-4.68796507433909
 20
131.7244520641814
 30
0.0
 11
-4.822471841115899
 21
131.2224659766085
 31
0.0
  0
LINE
  5
10D
330
BE
100
AcDbEntity
  8
ZUWAKU
  6
Continuous
 62
     6
370
    18
100
AcDbLine
 10
-6.793335074500064
 20
133.5254744099523
 30
0.0
 11
-4.063886430494222
 21
133.5254744099523
 31
0.0
  0
LINE
  5
10E
330
BE
100
AcDbEntity
  8
ZUWAKU
  6
Continuous
 62
     6
370
    18
100
AcDbLine
 10
-6.793335074504654
 20
133.5254744099523
 30
0.0
 11
-7.935371758038855
 21
129.2633354828952
 31
0.0
  0
LINE
  5
10F
330
BE
100
AcDbEntity
  8
ZUWAKU
  6
Continuous
 62
     6
370
    18
100
AcDbLine
 10
-4.063886430494222
 20
133.5254744099523
 30
0.0
 11
-4.183074453479151
 21
133.0806586525188
 31
0.0
  0
LINE
  5
110
330
BE
100
AcDbEntity
  8
ZUWAKU
  6
Continuous
 62
     6
370
    18
100
AcDbLine
 10
-5.092502909879272
 20
129.6866254473846
 30
0.0
 11
-5.206494156524528
 21
129.2612043232864
 31
0.0
  0
LINE
  5
111
330
BE
100
AcDbEntity
  8
ZUWAKU
  6
Continuous
 62
     6
370
    18
100
AcDbLine
 10
-6.314917783502992
 20
133.0806586525188
 30
0.0
 11
-6.678312243617782
 21
131.7244520641814
 31
0.0
  0
LINE
  5
112
330
BE
100
AcDbEntity
  8
ZUWAKU
  6
Continuous
 62
     6
370
    18
100
AcDbLine
 10
-6.812819010394577
 20
131.2224659766085
 30
0.0
 11
-7.224346239903113
 21
129.6866254473846
 31
0.0
  0
LINE
  5
113
330
BE
100
AcDbEntity
  8
ZUWAKU
  6
Continuous
 62
     6
370
    25
100
AcDbLine
 10
-5.092502909879272
 20
129.6866254473846
 30
0.0
 11
-7.224346239903127
 21
129.6866254473846
 31
0.0
  0
LINE
  5
114
330
BE
100
AcDbEntity
  8
ZUWAKU
  6
Continuous
 62
     6
370
    25
100
AcDbLine
 10
-6.812819010394577
 20
131.2224659766085
 30
0.0
 11
-4.822471841115899
 21
131.2224659766085
 31
0.0
  0
LINE
  5
115
330
BE
100
AcDbEntity
  8
ZUWAKU
  6
Continuous
 62
     6
370
    25
100
AcDbLine
 10
-6.678312243617597
 20
131.7244520641814
 30
0.0
 11
-4.68796507433909
 21
131.7244520641814
 31
0.0
  0
ENDBLK
  5
C0
330
BE
100
AcDbEntity
  8
0
100
AcDbBlockEnd
  0
BLOCK
  5
C2
330
C1
100
AcDbEntity
  8
0
100
AcDbBlockBegin
  2
DC_FILL_GROUP_7
 70
     0
 10
0.0
 20
0.0
 30
0.0
  3
DC_FILL_GROUP_7
  1
DC_FILL_GROUP_7
  0
LINE
  5
116
330
C1
100
AcDbEntity
  8
ZUWAKU
  6
Continuous
 62
     6
370
    25
100
AcDbLine
 10
-3.224583528464578
 20
130.5224816688588
 30
0.0
 11
-3.78690972180226
 21
130.5224816688588
 31
0.0
  0
LINE
  5
117
330
C1
100
AcDbEntity
  8
ZUWAKU
  6
Continuous
 62
     6
370
    25
100
AcDbLine
 10
-0.8288898247109984
 20
132.3807432171216
 30
0.0
 11
-0.2588268460625045
 21
132.3807432171216
 31
0.0
  0
ARC
  5
118
330
C1
100
AcDbEntity
  8
ZUWAKU
  6
Continuous
 62
     6
370
    25
100
AcDbCircle
 10
-0.7834995687351096
 20
129.9471183586792
 30
0.0
 40
2.50797405033412
100
AcDbArc
 50
166.7374506696339
 51
174.0346960170794
  0
ARC
  5
119
330
C1
100
AcDbEntity
  8
ZUWAKU
  6
Continuous
 62
     6
370
    25
100
AcDbCircle
 10
-2.859513642208555
 20
130.1334558390303
 30
0.0
 40
0.4249267598038105
100
AcDbArc
 50
169.9289351766524
 51
229.7688796832034
  0
ARC
  5
11A
330
C1
100
AcDbEntity
  8
ZUWAKU
  6
Continuous
 62
     6
370
    25
100
AcDbCircle
 10
-2.666761737496486
 20
130.3875292655661
 30
0.0
 40
0.7435841409637962
100
AcDbArc
 50
231.0745478687071
 51
262.6716666561708
  0
ARC
  5
11B
330
C1
100
AcDbEntity
  8
ZUWAKU
  6
Continuous
 62
     6
370
    25
100
AcDbCircle
 10
-2.422436317866783
 20
131.4537938908353
 30
0.0
 40
1.835386079784519
100
AcDbArc
 50
259.3507178335936
 51
286.2294064476557
  0
ARC
  5
11C
330
C1
100
AcDbEntity
  8
ZUWAKU
  6
Continuous
 62
     6
370
    25
100
AcDbCircle
 10
-2.15350917575411
 20
130.5924258088115
 30
0.0
 40
0.9333459318929238
100
AcDbArc
 50
285.1567838305781
 51
336.8654773103665
  0
ARC
  5
11D
330
C1
100
AcDbEntity
  8
ZUWAKU
  6
Continuous
 62
     6
370
    25
100
AcDbCircle
 10
-1.728523901164365
 20
130.3758570214736
 30
0.0
 40
0.4585784011879434
100
AcDbArc
 50
340.8894722365158
 51
32.66471446744971
  0
ARC
  5
11E
330
C1
100
AcDbEntity
  8
ZUWAKU
  6
Continuous
 62
     6
370
    25
100
AcDbCircle
 10
-1.862092629016701
 20
130.2253186631512
 30
0.0
 40
0.654555745366824
100
AcDbArc
 50
37.45311258045549
 51
51.10339143266279
  0
LINE
  5
11F
330
C1
100
AcDbEntity
  8
ZUWAKU
  6
Continuous
 62
     6
370
    25
100
AcDbLine
 10
-1.712702415929058
 20
130.909256667821
 30
0.0
 11
-2.857637180679362
 21
131.5608465538943
 31
0.0
  0
ARC
  5
120
330
C1
100
AcDbEntity
  8
ZUWAKU
  6
Continuous
 62
     6
370
    25
100
AcDbCircle
 10
-2.632602625983452
 20
129.2468346376588
 30
0.0
 40
1.89996405303543
100
AcDbArc
 50
51.54771738514115
 51
61.04207824187367
  0
ARC
  5
121
330
C1
100
AcDbEntity
  8
ZUWAKU
  6
Continuous
 62
     6
370
    25
100
AcDbCircle
 10
-2.606641010930645
 20
132.1068388480489
 30
0.0
 40
0.6009215111016437
100
AcDbArc
 50
186.3932441014288
 51
245.3114539337998
  0
ARC
  5
122
330
C1
100
AcDbEntity
  8
ZUWAKU
  6
Continuous
 62
     6
370
    25
100
AcDbCircle
 10
-1.809879857684521
 20
132.094259640641
 30
0.0
 40
1.395004113623998
100
AcDbArc
 50
140.2505270589059
 51
182.232196080464
  0
ARC
  5
123
330
C1
100
AcDbEntity
  8
ZUWAKU
  6
Continuous
 62
     6
370
    25
100
AcDbCircle
 10
-1.712882617490692
 20
132.048339570572
 30
0.0
 40
1.499181071149208
100
AcDbArc
 50
101.1908841839622
 51
141.2716754090158
  0
ARC
  5
124
330
C1
100
AcDbEntity
  8
ZUWAKU
  6
Continuous
 62
     6
370
    25
100
AcDbCircle
 10
-1.476092526492437
 20
130.9420584126249
 30
0.0
 40
2.630442027257921
100
AcDbArc
 50
78.33883458936698
 51
101.5738685506533
  0
ARC
  5
125
330
C1
100
AcDbEntity
  8
ZUWAKU
  6
Continuous
 62
     6
370
    25
100
AcDbCircle
 10
-1.075715356714653
 20
132.6637227764344
 30
0.0
 40
0.8645138922101454
100
AcDbArc
 50
340.8933271153405
 51
81.26446335039515
  0
ARC
  5
126
330
C1
100
AcDbEntity
  8
ZUWAKU
  6
Continuous
 62
     6
370
    25
100
AcDbCircle
 10
-1.369157678896158
 20
132.5661083324822
 30
0.0
 40
0.5711826155079285
100
AcDbArc
 50
341.0629799776098
 51
27.6071696008516
  0
ARC
  5
127
330
C1
100
AcDbEntity
  8
ZUWAKU
  6
Continuous
 62
     6
370
    25
100
AcDbCircle
 10
-1.318519489136207
 20
132.5433184379326
 30
0.0
 40
0.5386432608505282
100
AcDbArc
 50
32.25654187658523
 51
80.51431194909236
  0
ARC
  5
128
330
C1
100
AcDbEntity
  8
ZUWAKU
  6
Continuous
 62
     6
370
    25
100
AcDbCircle
 10
-1.557756208703907
 20
131.3632260160056
 30
0.0
 40
1.742520441859646
100
AcDbArc
 50
79.15011896131765
 51
108.0664376272098
  0
ARC
  5
129
330
C1
100
AcDbEntity
  8
ZUWAKU
  6
Continuous
 62
     6
370
    25
100
AcDbCircle
 10
-1.833441979590603
 20
132.2918451530955
 30
0.0
 40
0.7746216927719662
100
AcDbArc
 50
109.9817183681286
 51
173.1724334146036
  0
ARC
  5
12A
330
C1
100
AcDbEntity
  8
ZUWAKU
  6
Continuous
 62
     6
370
    25
100
AcDbCircle
 10
-2.283262736295185
 20
132.32551277749
 30
0.0
 40
0.3246080018075697
100
AcDbArc
 50
169.6318053873956
 51
230.4161863131162
  0
LINE
  5
12B
330
C1
100
AcDbEntity
  8
ZUWAKU
  6
Continuous
 62
     6
370
    25
100
AcDbLine
 10
-2.494678496184875
 20
132.0791923940303
 30
0.0
 11
-1.108454353672087
 21
131.2797391624018
 31
0.0
  0
ARC
  5
12C
330
C1
100
AcDbEntity
  8
ZUWAKU
  6
Continuous
 62
     6
370
    25
100
AcDbCircle
 10
-1.405876864626975
 20
130.5560446692498
 30
0.0
 40
0.7434509898745061
100
AcDbArc
 50
347.1513705453531
 51
40.27666286819425
  0
ARC
  5
12D
330
C1
100
AcDbEntity
  8
ZUWAKU
  6
Continuous
 62
     6
370
    25
100
AcDbCircle
 10
-1.868903466724461
 20
130.5901924075046
 30
0.0
 40
1.204494288996884
100
AcDbArc
 50
310.5938492832106
 51
350.4674651122522
  0
ARC
  5
12E
330
C1
100
AcDbEntity
  8
ZUWAKU
  6
Continuous
 62
     6
370
    25
100
AcDbCircle
 10
-2.558254893119923
 20
130.087750101634
 30
0.0
 40
1.30329744248432
100
AcDbArc
 50
160.5148326897714
 51
191.8895310933177
  0
ARC
  5
12F
330
C1
100
AcDbEntity
  8
ZUWAKU
  6
Continuous
 62
     6
370
    25
100
AcDbCircle
 10
-2.963001710900201
 20
130.2116731678471
 30
0.0
 40
0.9549520550140204
100
AcDbArc
 50
204.2643871343564
 51
262.4722616271382
  0
ARC
  5
130
330
C1
100
AcDbEntity
  8
ZUWAKU
  6
Continuous
 62
     6
370
    25
100
AcDbCircle
 10
-2.537347971461983
 20
132.5227850078216
 30
0.0
 40
3.304060398726554
100
AcDbArc
 50
260.4044965112331
 51
273.429119171865
  0
ARC
  5
131
330
C1
100
AcDbEntity
  8
ZUWAKU
  6
Continuous
 62
     6
370
    25
100
AcDbCircle
 10
-2.34597051541725
 20
131.3504893434705
 30
0.0
 40
2.125858195144981
100
AcDbArc
 50
270.1684656717244
 51
296.4837080533451
  0
ARC
  5
132
330
C1
100
AcDbEntity
  8
ZUWAKU
  6
Continuous
 62
     6
370
    25
100
AcDbCircle
 10
-1.938069692842916
 20
130.517858724981
 30
0.0
 40
1.198718270853014
100
AcDbArc
 50
296.780525580249
 51
315.35939167249
  0
ARC
  5
133
330
C1
100
AcDbEntity
  8
ZUWAKU
  6
Continuous
 62
     6
370
    25
100
AcDbCircle
 10
-1.533132723280261
 20
130.5371454429522
 30
0.0
 40
0.8554514304032861
100
AcDbArc
 50
35.72751677920665
 51
60.23539910010999
  0
ENDBLK
  5
C3
330
C1
100
AcDbEntity
  8
0
100
AcDbBlockEnd
  0
BLOCK
  5
C5
330
C4
100
AcDbEntity
  8
0
100
AcDbBlockBegin
  2
DC_FILL_GROUP_8
 70
     0
 10
0.0
 20
0.0
 30
0.0
  3
DC_FILL_GROUP_8
  1
DC_FILL_GROUP_8
  0
LINE
  5
134
330
C4
100
AcDbEntity
  8
ZUWAKU
  6
Continuous
 62
     6
370
    18
100
AcDbLine
 10
0.8840602143685317
 20
133.5257500175911
 30
0.0
 11
4.281826524918756
 21
133.5257500175911
 31
0.0
  0
LINE
  5
135
330
C4
100
AcDbEntity
  8
ZUWAKU
  6
Continuous
 62
     6
370
    18
100
AcDbLine
 10
1.153476913781702
 20
129.256307163169
 30
0.0
 11
1.728354297797438
 21
129.256307163169
 31
0.0
  0
LINE
  5
136
330
C4
100
AcDbEntity
  8
ZUWAKU
  6
Continuous
 62
     6
370
    18
100
AcDbLine
 10
0.8840602143685317
 20
133.5257500175911
 30
0.0
 11
0.7643486420659542
 21
133.0789803475039
 31
0.0
  0
LINE
  5
137
330
C4
100
AcDbEntity
  8
ZUWAKU
  6
Continuous
 62
     6
370
    18
100
AcDbLine
 10
4.281826524918756
 20
133.5257500175911
 30
0.0
 11
4.162114952616179
 21
133.0789803475039
 31
0.0
  0
LINE
  5
138
330
C4
100
AcDbEntity
  8
ZUWAKU
  6
Continuous
 62
     6
370
    18
100
AcDbLine
 10
2.752636490468078
 20
133.0789803475039
 30
0.0
 11
1.728354297797438
 21
129.256307163169
 31
0.0
  0
LINE
  5
139
330
C4
100
AcDbEntity
  8
ZUWAKU
  6
Continuous
 62
     6
370
    18
100
AcDbLine
 10
1.153476913781702
 20
129.256307163169
 30
0.0
 11
2.177759106452342
 21
133.0789803475039
 31
0.0
  0
LINE
  5
13A
330
C4
100
AcDbEntity
  8
ZUWAKU
  6
Continuous
 62
     6
370
    18
100
AcDbLine
 10
0.7643486420659542
 20
133.0789803475039
 30
0.0
 11
2.177759106452342
 21
133.0789803475039
 31
0.0
  0
LINE
  5
13B
330
C4
100
AcDbEntity
  8
ZUWAKU
  6
Continuous
 62
     6
370
    18
100
AcDbLine
 10
2.752636490468078
 20
133.0789803475039
 30
0.0
 11
4.162114952616179
 21
133.0789803475039
 31
0.0
  0
ENDBLK
  5
C6
330
C4
100
AcDbEntity
  8
0
100
AcDbBlockEnd
  0
BLOCK
  5
C8
330
C7
100
AcDbEntity
  8
0
100
AcDbBlockBegin
  2
DC_GROUP_627-30 笠木戸当り_9
 70
     0
 10
0.0
 20
0.0
 30
0.0
  3
DC_GROUP_627-30 笠木戸当り_9
  1
DC_GROUP_627-30 笠木戸当り_9
  0
INSERT
  5
13C
330
C7
100
AcDbEntity
  8
0
  6
Continuous
100
AcDbBlockReference
  2
DC_GROUP_627-30 笠木戸当り_10
 10
0.0
 20
0.0
 30
0.0
  0
ENDBLK
  5
C9
330
C7
100
AcDbEntity
  8
0
100
AcDbBlockEnd
  0
BLOCK
  5
CB
330
CA
100
AcDbEntity
  8
0
100
AcDbBlockBegin
  2
DC_GROUP_627-30 笠木戸当り_10
 70
     0
 10
0.0
 20
0.0
 30
0.0
  3
DC_GROUP_627-30 笠木戸当り_10
  1
DC_GROUP_627-30 笠木戸当り_10
  0
INSERT
  5
13D
330
CA
100
AcDbEntity
  8
ZUWAKU
  6
Continuous
100
AcDbBlockReference
  2
DC_FILL_GROUP_11
 10
0.0
 20
0.0
 30
0.0
  0
HATCH
  5
13E
330
CA
100
AcDbEntity
  8
ZUWAKU
 62
     6
100
AcDbHatch
 10
0.0
 20
0.0
 30
0.0
210
0.0
220
0.0
230
1.0
  2
SOLID
 70
     1
 71
     0
 91
        1
 92
        0
 93
       12
 72
     1
 10
5.807022235433489
 20
131.4977303481027
 11
188.4
 21
131.4977303481027
 72
     1
 10
188.4
 20
131.4977303481027
 11
188.3999999999999
 21
-138.3022696518974
 72
     1
 10
188.3999999999999
 20
-138.3022696518974
 11
-188.4000000000001
 21
-138.3022696518972
 72
     1
 10
-188.4000000000001
 20
-138.3022696518972
 11
-188.4
 21
131.4977303481027
 72
     1
 10
-188.4
 20
131.4977303481027
 11
-14.19297776456651
 21
131.4977303481027
 72
     1
 10
-14.1929777645665
 20
131.4977303481027
 11
-14.30015744153895
 21
131.0977303481027
 72
     1
 10
-14.30015744153895
 20
131.0977303481027
 11
-188.0
 21
131.0977303481027
 72
     1
 10
-188.0
 20
131.0977303481027
 11
-188.0000000000001
 21
-137.9022696518972
 72
     1
 10
-188.0000000000001
 20
-137.9022696518972
 11
187.9999999999999
 21
-137.9022696518973
 72
     1
 10
187.9999999999999
 20
-137.9022696518973
 11
188.0
 21
131.0977303481027
 72
     1
 10
188.0
 20
131.0977303481027
 11
5.699842558461029
 21
131.0977303481027
 72
     1
 10
5.699842558461039
 20
131.0977303481027
 11
5.807022235433489
 21
131.4977303481027
 97
        0
 75
     0
 76
     1
 98
        0
  0
LINE
  5
13F
330
CA
100
AcDbEntity
  8
ZUWAKU
  6
Continuous
 62
     6
370
    25
100
AcDbLine
 10
-188.0
 20
131.0977303481027
 30
0.0
 11
-14.30015744153895
 21
131.0977303481027
 31
0.0
  0
ENDBLK
  5
CC
330
CA
100
AcDbEntity
  8
0
100
AcDbBlockEnd
  0
BLOCK
  5
CE
330
CD
100
AcDbEntity
  8
0
100
AcDbBlockBegin
  2
DC_FILL_GROUP_11
 70
     0
 10
0.0
 20
0.0
 30
0.0
  3
DC_FILL_GROUP_11
  1
DC_FILL_GROUP_11
  0
LINE
  5
140
330
CD
100
AcDbEntity
  8
ZUWAKU
  6
Continuous
 62
     6
370
    25
100
AcDbLine
 10
5.807022235433489
 20
131.4977303481027
 30
0.0
 11
188.4
 21
131.4977303481027
 31
0.0
  0
LINE
  5
141
330
CD
100
AcDbEntity
  8
ZUWAKU
  6
Continuous
 62
     6
370
    25
100
AcDbLine
 10
188.4
 20
131.4977303481027
 30
0.0
 11
188.3999999999999
 21
-138.3022696518974
 31
0.0
  0
LINE
  5
142
330
CD
100
AcDbEntity
  8
ZUWAKU
  6
Continuous
 62
     6
370
    25
100
AcDbLine
 10
188.3999999999999
 20
-138.3022696518974
 30
0.0
 11
-188.4000000000001
 21
-138.3022696518972
 31
0.0
  0
LINE
  5
143
330
CD
100
AcDbEntity
  8
ZUWAKU
  6
Continuous
 62
     6
370
    25
100
AcDbLine
 10
-188.4000000000001
 20
-138.3022696518972
 30
0.0
 11
-188.4
 21
131.4977303481027
 31
0.0
  0
ENDBLK
  5
CF
330
CD
100
AcDbEntity
  8
0
100
AcDbBlockEnd
  0
BLOCK
  5
D1
330
D0
100
AcDbEntity
  8
0
100
AcDbBlockBegin
  2
DC_GROUP_627-30 笠木戸当り_12
 70
     0
 10
0.0
 20
0.0
 30
0.0
  3
DC_GROUP_627-30 笠木戸当り_12
  1
DC_GROUP_627-30 笠木戸当り_12
  0
TEXT
  5
145
330
D0
100
AcDbEntity
  8
0
 62
     7
100
AcDbText
 10
-110.2865168539326
 20
-74.40056179775281
 30
0.0
 40
3.5
  1
20mm
 41
0.7692307692307693
  7
dcStyle0
 72
     5
 11
-103.2865168539326
 21
-74.40056179775281
 31
0.0
100
AcDbText
  0
LINE
  5
146
330
D0
100
AcDbEntity
  8
0
  6
Continuous
 62
     5
370
    13
100
AcDbLine
 10
-110.6365168539326
 20
-74.75056179775281
 30
0.0
 11
-102.9365168539326
 21
-74.75056179775281
 31
0.0
  0
ENDBLK
  5
D2
330
D0
100
AcDbEntity
  8
0
100
AcDbBlockEnd
  0
BLOCK
  5
D4
330
D3
100
AcDbEntity
  8
0
100
AcDbBlockBegin
  2
DC_GROUP_627-30 笠木戸当り_13
 70
     0
 10
0.0
 20
0.0
 30
0.0
  3
DC_GROUP_627-30 笠木戸当り_13
  1
DC_GROUP_627-30 笠木戸当り_13
  0
TEXT
  5
147
330
D3
100
AcDbEntity
  8
0
 62
     7
100
AcDbText
 10
93.94269662921349
 20
-74.40056179775281
 30
0.0
 40
3.5
  1
40mm
 41
0.7692307692307693
  7
dcStyle0
 72
     5
 11
100.9426966292135
 21
-74.40056179775281
 31
0.0
100
AcDbText
  0
LINE
  5
148
330
D3
100
AcDbEntity
  8
0
  6
Continuous
 62
     5
370
    13
100
AcDbLine
 10
93.59269662921349
 20
-74.75056179775281
 30
0.0
 11
101.2926966292135
 21
-74.75056179775281
 31
0.0
  0
ENDBLK
  5
D5
330
D3
100
AcDbEntity
  8
0
100
AcDbBlockEnd
  0
BLOCK
  5
229
330
228
100
AcDbEntity
  8
0
100
AcDbBlockBegin
  2
_OPEN30
 70
     0
 10
0.0
 20
0.0
 30
0.0
  3
_OPEN30
  1
_OPEN30
  0
LINE
  5
22B
330
228
100
AcDbEntity
  8
0
  6
ByBlock
 62
     0
370
    -2
100
AcDbLine
 10
-1.0
 20
0.267949
 30
0.0
 11
0.0
 21
0.0
 31
0.0
  0
LINE
  5
22C
330
228
100
AcDbEntity
  8
0
  6
ByBlock
 62
     0
370
    -2
100
AcDbLine
 10
0.0
 20
0.0
 30
0.0
 11
-1.0
 21
-0.267949
 31
0.0
  0
LINE
  5
22D
330
228
100
AcDbEntity
  8
0
  6
ByBlock
 62
     0
370
    -2
100
AcDbLine
 10
0.0
 20
0.0
 30
0.0
 11
-1.0
 21
0.0
 31
0.0
  0
ENDBLK
  5
22A
330
228
100
AcDbEntity
  8
0
100
AcDbBlockEnd
  0
BLOCK
  5
28F
330
28E
100
AcDbEntity
  8
0
100
AcDbBlockBegin
  2
_DOT
 70
     0
 10
0.0
 20
0.0
 30
0.0
  3
_DOT
  1
_DOT
  0
POLYLINE
  5
291
330
28E
100
AcDbEntity
  8
0
  6
ByBlock
 62
     0
100
AcDb2dPolyline
 66
     1
 10
0.0
 20
0.0
 30
0.0
 70
     1
 40
0.5
 41
0.5
  0
VERTEX
  5
293
330
291
100
AcDbEntity
  8
0
  6
ByBlock
 62
     0
100
AcDbVertex
100
AcDb2dVertex
 10
-0.25
 20
0.0
 30
0.0
 42
1.0
  0
VERTEX
  5
294
330
291
100
AcDbEntity
  8
0
  6
ByBlock
 62
     0
100
AcDbVertex
100
AcDb2dVertex
 10
0.25
 20
0.0
 30
0.0
 42
1.0
  0
SEQEND
  5
295
330
291
100
AcDbEntity
  8
0
  6
ByBlock
 62
     0
  0
LINE
  5
292
330
28E
100
AcDbEntity
  8
0
  6
ByBlock
 62
     0
370
    -2
100
AcDbLine
 10
-0.5
 20
0.0
 30
0.0
 11
-1.0
 21
0.0
 31
0.0
  0
ENDBLK
  5
290
330
28E
100
AcDbEntity
  8
0
100
AcDbBlockEnd
  0
ENDSEC
  0
SECTION
  2
ENTITIES
  0
LINE
  5
149
330
1F
100
AcDbEntity
  8
0
  6
Continuous
 62
     3
370
    35
100
AcDbLine
 10
-72.86368279320274
 20
-17.55284828946982
 30
0.0
 11
-32.86368279320274
 21
-17.55284828946982
 31
0.0
  0
LINE
  5
14A
330
1F
100
AcDbEntity
  8
0
  6
Continuous
 62
     3
370
    35
100
AcDbLine
 10
-32.86368279320274
 20
-43.55284828946981
 30
0.0
 11
-32.86368279320274
 21
-17.55284828946982
 31
0.0
  0
LINE
  5
14B
330
1F
100
AcDbEntity
  8
0
  6
Continuous
 62
     3
370
    35
100
AcDbLine
 10
-72.86368279320274
 20
-43.55284828946981
 30
0.0
 11
-72.86368279320274
 21
-17.55284828946982
 31
0.0
  0
LINE
  5
14C
330
1F
100
AcDbEntity
  8
0
  6
Continuous
 62
     3
370
    35
100
AcDbLine
 10
-32.86368279320274
 20
-45.55284828946981
 30
0.0
 11
-34.86368279320274
 21
-45.55284828946981
 31
0.0
  0
LINE
  5
14D
330
1F
100
AcDbEntity
  8
0
  6
Continuous
 62
     3
370
    35
100
AcDbLine
 10
-32.86368279320274
 20
-43.55284828946981
 30
0.0
 11
-34.86368279320274
 21
-43.55284828946981
 31
0.0
  0
LINE
  5
14E
330
1F
100
AcDbEntity
  8
0
  6
Continuous
 62
     3
370
    35
100
AcDbLine
 10
-32.86368279320274
 20
-43.55284828946981
 30
0.0
 11
-32.86368279320274
 21
-45.55284828946981
 31
0.0
  0
LINE
  5
14F
330
1F
100
AcDbEntity
  8
0
  6
Continuous
 62
     3
370
    35
100
AcDbLine
 10
-70.86368279320274
 20
-45.55284828946981
 30
0.0
 11
-72.86368279320274
 21
-45.55284828946981
 31
0.0
  0
LINE
  5
150
330
1F
100
AcDbEntity
  8
0
  6
Continuous
 62
     3
370
    35
100
AcDbLine
 10
-70.86368279320274
 20
-43.55284828946981
 30
0.0
 11
-72.86368279320274
 21
-43.55284828946981
 31
0.0
  0
LINE
  5
151
330
1F
100
AcDbEntity
  8
0
  6
Continuous
 62
     3
370
    35
100
AcDbLine
 10
-72.86368279320274
 20
-43.55284828946981
 30
0.0
 11
-72.86368279320274
 21
-45.55284828946981
 31
0.0
  0
LINE
  5
152
330
1F
100
AcDbEntity
  8
0
  6
Continuous
 62
     3
370
    35
100
AcDbLine
 10
-72.86368279320274
 20
-15.55284828946983
 30
0.0
 11
-72.86368279320274
 21
-17.55284828946982
 31
0.0
  0
LINE
  5
153
330
1F
100
AcDbEntity
  8
0
  6
Continuous
 62
     3
370
    35
100
AcDbLine
 10
-32.86368279320274
 20
-15.55284828946983
 30
0.0
 11
-32.86368279320274
 21
-17.55284828946982
 31
0.0
  0
LINE
  5
154
330
1F
100
AcDbEntity
  8
0
  6
Continuous
 62
     3
370
    35
100
AcDbLine
 10
-72.86368279320274
 20
-15.55284828946983
 30
0.0
 11
-32.86368279320274
 21
-15.55284828946983
 31
0.0
  0
LINE
  5
155
330
1F
100
AcDbEntity
  8
0
  6
Continuous
 62
     3
370
    35
100
AcDbLine
 10
-70.86368279320274
 20
-43.55284828946981
 30
0.0
 11
-34.86368279320274
 21
-43.55284828946981
 31
0.0
  0
LINE
  5
156
330
1F
100
AcDbEntity
  8
0
  6
Continuous
 62
     3
370
    35
100
AcDbLine
 10
-70.86368279320274
 20
-45.55284828946981
 30
0.0
 11
-34.86368279320274
 21
-45.55284828946981
 31
0.0
  0
LINE
  5
157
330
1F
100
AcDbEntity
  8
0
  6
Continuous
 62
     3
370
    35
100
AcDbLine
 10
-152.6735735415982
 20
-43.55284828946983
 30
0.0
 11
-152.6735735415982
 21
-17.55284828946983
 31
0.0
  0
LINE
  5
158
330
1F
100
AcDbEntity
  8
0
  6
Continuous
 62
     3
370
    35
100
AcDbLine
 10
-126.6735735415982
 20
-43.55284828946983
 30
0.0
 11
-126.6735735415982
 21
-45.55284828946983
 31
0.0
  0
LINE
  5
159
330
1F
100
AcDbEntity
  8
0
  6
Continuous
 62
     3
370
    35
100
AcDbLine
 10
-147.6735735415982
 20
-17.55284828946983
 30
0.0
 11
-152.6735735415982
 21
-17.55284828946983
 31
0.0
  0
LINE
  5
15A
330
1F
100
AcDbEntity
  8
0
  6
Continuous
 62
     3
370
    35
100
AcDbLine
 10
-147.6735735415982
 20
-15.55284828946983
 30
0.0
 11
-147.6735735415982
 21
-17.55284828946983
 31
0.0
  0
LINE
  5
15B
330
1F
100
AcDbEntity
  8
0
  6
Continuous
 62
     3
370
    35
100
AcDbLine
 10
-154.6735735415982
 20
-43.55284828946983
 30
0.0
 11
-154.6735735415982
 21
-17.55284828946983
 31
0.0
  0
LINE
  5
15C
330
1F
100
AcDbEntity
  8
0
  6
Continuous
 62
     3
370
    35
100
AcDbLine
 10
-147.6735735415982
 20
-15.55284828946983
 30
0.0
 11
-152.6735735415982
 21
-15.55284828946983
 31
0.0
  0
LINE
  5
15D
330
1F
100
AcDbEntity
  8
0
  6
Continuous
 62
     3
370
    35
100
AcDbLine
 10
-152.6735735415982
 20
-45.55284828946983
 30
0.0
 11
-126.6735735415982
 21
-45.55284828946983
 31
0.0
  0
LINE
  5
15E
330
1F
100
AcDbEntity
  8
0
  6
Continuous
 62
     3
370
    35
100
AcDbLine
 10
-152.6735735415982
 20
-43.55284828946983
 30
0.0
 11
-126.6735735415982
 21
-43.55284828946983
 31
0.0
  0
LINE
  5
15F
330
1F
100
AcDbEntity
  8
0
  6
Continuous
 62
     3
370
    35
100
AcDbLine
 10
-144.6735735415983
 20
27.34370123961224
 30
0.0
 11
-147.6735735415982
 21
27.34370123961224
 31
0.0
  0
LINE
  5
160
330
1F
100
AcDbEntity
  8
0
  6
Continuous
 62
     3
370
    35
100
AcDbLine
 10
-144.6735735415982
 20
67.34370123961224
 30
0.0
 11
-147.6735735415982
 21
67.34370123961224
 31
0.0
  0
LINE
  5
161
330
1F
100
AcDbEntity
  8
0
  6
Continuous
 62
     3
370
    35
100
AcDbLine
 10
-136.6735735415982
 20
49.84370123961224
 30
0.0
 11
-131.6735735415982
 21
49.84370123961224
 31
0.0
  0
LINE
  5
162
330
1F
100
AcDbEntity
  8
0
  6
Continuous
 62
     3
370
    35
100
AcDbLine
 10
-131.6735735415982
 20
44.84370123961224
 30
0.0
 11
-136.6735735415982
 21
44.84370123961224
 31
0.0
  0
LINE
  5
163
330
1F
100
AcDbEntity
  8
0
  6
Continuous
 62
     3
370
    35
100
AcDbLine
 10
-147.6735735415982
 20
27.34370123961224
 30
0.0
 11
-154.6735735415982
 21
27.34370123961224
 31
0.0
  0
LINE
  5
164
330
1F
100
AcDbEntity
  8
0
  6
Continuous
 62
     3
370
    35
100
AcDbLine
 10
-154.6735735415982
 20
67.34370123961224
 30
0.0
 11
-154.6735735415982
 21
27.34370123961224
 31
0.0
  0
LINE
  5
165
330
1F
100
AcDbEntity
  8
0
  6
Continuous
 62
     3
370
    35
100
AcDbLine
 10
-147.6735735415982
 20
67.34370123961224
 30
0.0
 11
-154.6735735415982
 21
67.34370123961224
 31
0.0
  0
LINE
  5
166
330
1F
100
AcDbEntity
  8
0
  6
Continuous
 62
     3
370
    35
100
AcDbLine
 10
-147.6735735415982
 20
29.84370123961224
 30
0.0
 11
-147.6735735415982
 21
64.84370123961224
 31
0.0
  0
LINE
  5
167
330
1F
100
AcDbEntity
  8
0
  6
Continuous
 62
     3
370
    35
100
AcDbLine
 10
-144.6735735415983
 20
27.34370123961224
 30
0.0
 11
-131.6735735415982
 21
27.34370123961224
 31
0.0
  0
LINE
  5
168
330
1F
100
AcDbEntity
  8
0
  6
Continuous
 62
     3
370
    35
100
AcDbLine
 10
-144.6735735415982
 20
67.34370123961224
 30
0.0
 11
-131.6735735415982
 21
67.34370123961224
 31
0.0
  0
LINE
  5
169
330
1F
100
AcDbEntity
  8
0
  6
Continuous
 62
     3
370
    35
100
AcDbLine
 10
-126.6735735415982
 20
32.34370123961224
 30
0.0
 11
-126.6735735415982
 21
62.34370123961224
 31
0.0
  0
CIRCLE
  5
16A
330
1F
100
AcDbEntity
  8
0
  6
Continuous
 62
     3
370
    35
100
AcDbCircle
 10
-131.6735735415982
 20
62.34370123961224
 30
0.0
 40
2.5
  0
CIRCLE
  5
16B
330
1F
100
AcDbEntity
  8
0
  6
Continuous
 62
     3
370
    35
100
AcDbCircle
 10
-131.6735735415982
 20
32.34370123961224
 30
0.0
 40
2.5
  0
ARC
  5
16C
330
1F
100
AcDbEntity
  8
0
  6
Continuous
 62
     3
370
    35
100
AcDbCircle
 10
-131.6735735415982
 20
47.34370123961224
 30
0.0
 40
2.5
100
AcDbArc
 50
270.0
 51
90.0
  0
ARC
  5
16D
330
1F
100
AcDbEntity
  8
0
  6
Continuous
 62
     3
370
    35
100
AcDbCircle
 10
-136.6735735415982
 20
47.34370123961224
 30
0.0
 40
2.5
100
AcDbArc
 50
90.0
 51
270.0
  0
ARC
  5
16E
330
1F
100
AcDbEntity
  8
0
  6
Continuous
 62
     3
370
    35
100
AcDbCircle
 10
-150.1735735415982
 20
64.84370123961224
 30
0.0
 40
2.5
100
AcDbArc
 50
0.0
 51
90.0
  0
ARC
  5
16F
330
1F
100
AcDbEntity
  8
0
  6
Continuous
 62
     3
370
    35
100
AcDbCircle
 10
-150.1735735415982
 20
29.84370123961224
 30
0.0
 40
2.5
100
AcDbArc
 50
270.0
 51
0.0
  0
ARC
  5
170
330
1F
100
AcDbEntity
  8
0
  6
Continuous
 62
     3
370
    35
100
AcDbCircle
 10
-131.6735735415982
 20
62.34370123961224
 30
0.0
 40
5.0
100
AcDbArc
 50
0.0
 51
90.0
  0
ARC
  5
171
330
1F
100
AcDbEntity
  8
0
  6
Continuous
 62
     3
370
    35
100
AcDbCircle
 10
-131.6735735415982
 20
32.34370123961224
 30
0.0
 40
5.0
100
AcDbArc
 50
270.0
 51
0.0
  0
ARC
  5
172
330
1F
100
AcDbEntity
  8
0
  6
Continuous
 62
     3
370
    35
100
AcDbCircle
 10
-152.6735735415982
 20
-43.55284828946983
 30
0.0
 40
2.0
100
AcDbArc
 50
180.0
 51
270.0
  0
ARC
  5
173
330
1F
100
AcDbEntity
  8
0
  6
Continuous
 62
     3
370
    35
100
AcDbCircle
 10
-152.6735735415982
 20
-17.55284828946983
 30
0.0
 40
2.0
100
AcDbArc
 50
90.0
 51
180.0
  0
LINE
  5
174
330
1F
100
AcDbEntity
  8
0
  6
Continuous
 62
     3
370
    35
100
AcDbLine
 10
163.665242826632
 20
-45.55284828946982
 30
0.0
 11
158.665242826632
 21
-45.55284828946982
 31
0.0
  0
LINE
  5
175
330
1F
100
AcDbEntity
  8
0
  6
Continuous
 62
     3
370
    35
100
AcDbLine
 10
163.665242826632
 20
-43.55284828946982
 30
0.0
 11
158.665242826632
 21
-43.55284828946982
 31
0.0
  0
LINE
  5
176
330
1F
100
AcDbEntity
  8
0
  6
Continuous
 62
     3
370
    35
100
AcDbLine
 10
163.665242826632
 20
-43.55284828946982
 30
0.0
 11
163.665242826632
 21
-45.55284828946982
 31
0.0
  0
LINE
  5
177
330
1F
100
AcDbEntity
  8
0
  6
Continuous
 62
     3
370
    35
100
AcDbLine
 10
128.665242826632
 20
-45.55284828946982
 30
0.0
 11
123.665242826632
 21
-45.55284828946982
 31
0.0
  0
LINE
  5
178
330
1F
100
AcDbEntity
  8
0
  6
Continuous
 62
     3
370
    35
100
AcDbLine
 10
128.665242826632
 20
-43.55284828946982
 30
0.0
 11
123.665242826632
 21
-43.55284828946982
 31
0.0
  0
LINE
  5
179
330
1F
100
AcDbEntity
  8
0
  6
Continuous
 62
     3
370
    35
100
AcDbLine
 10
123.665242826632
 20
-43.55284828946982
 30
0.0
 11
123.665242826632
 21
-45.55284828946982
 31
0.0
  0
LINE
  5
17A
330
1F
100
AcDbEntity
  8
0
  6
Continuous
 62
     3
370
    35
100
AcDbLine
 10
123.665242826632
 20
-17.55284828946983
 30
0.0
 11
163.665242826632
 21
-17.55284828946983
 31
0.0
  0
LINE
  5
17B
330
1F
100
AcDbEntity
  8
0
  6
Continuous
 62
     3
370
    35
100
AcDbLine
 10
163.665242826632
 20
-43.55284828946982
 30
0.0
 11
163.665242826632
 21
-17.55284828946983
 31
0.0
  0
LINE
  5
17C
330
1F
100
AcDbEntity
  8
0
  6
Continuous
 62
     3
370
    35
100
AcDbLine
 10
123.665242826632
 20
-43.55284828946982
 30
0.0
 11
123.665242826632
 21
-17.55284828946983
 31
0.0
  0
LINE
  5
17D
330
1F
100
AcDbEntity
  8
0
  6
Continuous
 62
     3
370
    35
100
AcDbLine
 10
161.165242826632
 20
-15.55284828946983
 30
0.0
 11
163.665242826632
 21
-15.55284828946983
 31
0.0
  0
LINE
  5
17E
330
1F
100
AcDbEntity
  8
0
  6
Continuous
 62
     3
370
    35
100
AcDbLine
 10
163.665242826632
 20
-17.55284828946983
 30
0.0
 11
163.665242826632
 21
-15.55284828946983
 31
0.0
  0
LINE
  5
17F
330
1F
100
AcDbEntity
  8
0
  6
Continuous
 62
     3
370
    35
100
AcDbLine
 10
123.665242826632
 20
-15.55284828946983
 30
0.0
 11
126.165242826632
 21
-15.55284828946983
 31
0.0
  0
LINE
  5
180
330
1F
100
AcDbEntity
  8
0
  6
Continuous
 62
     3
370
    35
100
AcDbLine
 10
123.665242826632
 20
-17.55284828946983
 30
0.0
 11
123.665242826632
 21
-15.55284828946983
 31
0.0
  0
LINE
  5
181
330
1F
100
AcDbEntity
  8
0
  6
Continuous
 62
     3
370
    35
100
AcDbLine
 10
126.165242826632
 20
-15.55284828946983
 30
0.0
 11
161.165242826632
 21
-15.55284828946983
 31
0.0
  0
LINE
  5
182
330
1F
100
AcDbEntity
  8
0
  6
Continuous
 62
     3
370
    35
100
AcDbLine
 10
128.665242826632
 20
-43.55284828946982
 30
0.0
 11
158.665242826632
 21
-43.55284828946982
 31
0.0
  0
LINE
  5
183
330
1F
100
AcDbEntity
  8
0
  6
Continuous
 62
     3
370
    35
100
AcDbLine
 10
128.665242826632
 20
-45.55284828946982
 30
0.0
 11
158.665242826632
 21
-45.55284828946982
 31
0.0
  0
LINE
  5
184
330
1F
100
AcDbEntity
  8
0
  6
Continuous
 62
     3
370
    35
100
AcDbLine
 10
68.92751702669008
 20
-45.55284828946984
 30
0.0
 11
73.92751702669008
 21
-45.55284828946984
 31
0.0
  0
LINE
  5
185
330
1F
100
AcDbEntity
  8
0
  6
Continuous
 62
     3
370
    35
100
AcDbLine
 10
68.92751702669008
 20
-43.55284828946984
 30
0.0
 11
73.92751702669008
 21
-43.55284828946984
 31
0.0
  0
LINE
  5
186
330
1F
100
AcDbEntity
  8
0
  6
Continuous
 62
     3
370
    35
100
AcDbLine
 10
73.92751702669008
 20
-43.55284828946984
 30
0.0
 11
73.92751702669008
 21
-45.55284828946984
 31
0.0
  0
LINE
  5
187
330
1F
100
AcDbEntity
  8
0
  6
Continuous
 62
     3
370
    35
100
AcDbLine
 10
35.92751702669008
 20
-43.55284828946984
 30
0.0
 11
35.92751702669008
 21
-17.55284828946984
 31
0.0
  0
LINE
  5
188
330
1F
100
AcDbEntity
  8
0
  6
Continuous
 62
     3
370
    35
100
AcDbLine
 10
43.92751702669008
 20
-43.55284828946984
 30
0.0
 11
35.92751702669008
 21
-43.55284828946984
 31
0.0
  0
LINE
  5
189
330
1F
100
AcDbEntity
  8
0
  6
Continuous
 62
     3
370
    35
100
AcDbLine
 10
40.92751702669008
 20
-15.55284828946984
 30
0.0
 11
38.42751702669008
 21
-15.55284828946984
 31
0.0
  0
LINE
  5
18A
330
1F
100
AcDbEntity
  8
0
  6
Continuous
 62
     3
370
    35
100
AcDbLine
 10
40.92751702669008
 20
-17.55284828946984
 30
0.0
 11
40.92751702669008
 21
-15.55284828946984
 31
0.0
  0
LINE
  5
18B
330
1F
100
AcDbEntity
  8
0
  6
Continuous
 62
     3
370
    35
100
AcDbLine
 10
35.92751702669008
 20
-17.55284828946984
 30
0.0
 11
38.42751702669008
 21
-17.55284828946984
 31
0.0
  0
LINE
  5
18C
330
1F
100
AcDbEntity
  8
0
  6
Continuous
 62
     3
370
    35
100
AcDbLine
 10
33.92751702669008
 20
-43.55284828946984
 30
0.0
 11
33.92751702669008
 21
-17.55284828946984
 31
0.0
  0
LINE
  5
18D
330
1F
100
AcDbEntity
  8
0
  6
Continuous
 62
     3
370
    35
100
AcDbLine
 10
35.92751702669008
 20
-15.55284828946984
 30
0.0
 11
38.42751702669008
 21
-15.55284828946984
 31
0.0
  0
LINE
  5
18E
330
1F
100
AcDbEntity
  8
0
  6
Continuous
 62
     3
370
    35
100
AcDbLine
 10
35.92751702669008
 20
-43.55284828946984
 30
0.0
 11
68.92751702669008
 21
-43.55284828946984
 31
0.0
  0
LINE
  5
18F
330
1F
100
AcDbEntity
  8
0
  6
Continuous
 62
     3
370
    35
100
AcDbLine
 10
35.92751702669008
 20
-45.55284828946984
 30
0.0
 11
68.92751702669008
 21
-45.55284828946984
 31
0.0
  0
LINE
  5
190
330
1F
100
AcDbEntity
  8
0
  6
Continuous
 62
     3
370
    35
100
AcDbLine
 10
40.92751702669008
 20
-17.55284828946984
 30
0.0
 11
38.42751702669008
 21
-17.55284828946984
 31
0.0
  0
ARC
  5
191
330
1F
100
AcDbEntity
  8
0
  6
Continuous
 62
     3
370
    35
100
AcDbCircle
 10
68.9275170266901
 20
62.34370123961227
 30
0.0
 40
4.999999999999993
100
AcDbArc
 50
359.9999999999999
 51
90.0
  0
ARC
  5
192
330
1F
100
AcDbEntity
  8
0
  6
Continuous
 62
     3
370
    35
100
AcDbCircle
 10
68.9275170266901
 20
32.34370123961226
 30
0.0
 40
5.0
100
AcDbArc
 50
270.0
 51
0.0
  0
LINE
  5
193
330
1F
100
AcDbEntity
  8
0
  6
Continuous
 62
     3
370
    35
100
AcDbLine
 10
43.92751702669008
 20
67.34370123961224
 30
0.0
 11
38.42751702669008
 21
67.34370123961224
 31
0.0
  0
LINE
  5
194
330
1F
100
AcDbEntity
  8
0
  6
Continuous
 62
     3
370
    35
100
AcDbLine
 10
38.42751702669008
 20
27.34370123961226
 30
0.0
 11
43.92751702669008
 21
27.34370123961226
 31
0.0
  0
ARC
  5
195
330
1F
100
AcDbEntity
  8
0
  6
Continuous
 62
     3
370
    35
100
AcDbCircle
 10
60.4275170266901
 20
47.34370123961224
 30
0.0
 40
2.499999999999998
100
AcDbArc
 50
269.9999999999999
 51
330.0
  0
ARC
  5
196
330
1F
100
AcDbEntity
  8
0
  6
Continuous
 62
     3
370
    35
100
AcDbCircle
 10
60.42751702669008
 20
47.34370123961224
 30
0.0
 40
2.500000000000004
100
AcDbArc
 50
330.0
 51
29.99999999999991
  0
ARC
  5
197
330
1F
100
AcDbEntity
  8
0
  6
Continuous
 62
     3
370
    35
100
AcDbCircle
 10
60.4275170266901
 20
47.34370123961224
 30
0.0
 40
2.500000000000002
100
AcDbArc
 50
29.99999999999997
 51
89.99999999999996
  0
LINE
  5
198
330
1F
100
AcDbEntity
  8
0
  6
Continuous
 62
     3
370
    35
100
AcDbLine
 10
55.42751702669008
 20
49.84370123961224
 30
0.0
 11
60.4275170266901
 21
49.84370123961224
 31
0.0
  0
ARC
  5
199
330
1F
100
AcDbEntity
  8
0
  6
Continuous
 62
     3
370
    35
100
AcDbCircle
 10
55.42751702669008
 20
47.34370123961224
 30
0.0
 40
2.5
100
AcDbArc
 50
90.0
 51
150.0
  0
ARC
  5
19A
330
1F
100
AcDbEntity
  8
0
  6
Continuous
 62
     3
370
    35
100
AcDbCircle
 10
55.42751702669011
 20
47.34370123961224
 30
0.0
 40
2.500000000000004
100
AcDbArc
 50
150.0000000000001
 51
209.9999999999999
  0
ARC
  5
19B
330
1F
100
AcDbEntity
  8
0
  6
Continuous
 62
     3
370
    35
100
AcDbCircle
 10
55.42751702669008
 20
47.34370123961224
 30
0.0
 40
2.500000000000001
100
AcDbArc
 50
210.0
 51
270.0
  0
LINE
  5
19C
330
1F
100
AcDbEntity
  8
0
  6
Continuous
 62
     3
370
    35
100
AcDbLine
 10
60.4275170266901
 20
44.84370123961224
 30
0.0
 11
55.42751702669008
 21
44.84370123961224
 31
0.0
  0
ARC
  5
19D
330
1F
100
AcDbEntity
  8
0
  6
Continuous
 62
     3
370
    35
100
AcDbCircle
 10
66.9275170266901
 20
34.34370123961226
 30
0.0
 40
2.5
100
AcDbArc
 50
0.0
 51
90.0
  0
ARC
  5
19E
330
1F
100
AcDbEntity
  8
0
  6
Continuous
 62
     3
370
    35
100
AcDbCircle
 10
66.9275170266901
 20
34.34370123961226
 30
0.0
 40
2.5
100
AcDbArc
 50
270.0
 51
0.0
  0
ARC
  5
19F
330
1F
100
AcDbEntity
  8
0
  6
Continuous
 62
     3
370
    35
100
AcDbCircle
 10
66.9275170266901
 20
34.34370123961226
 30
0.0
 40
2.5
100
AcDbArc
 50
180.0
 51
270.0
  0
ARC
  5
1A0
330
1F
100
AcDbEntity
  8
0
  6
Continuous
 62
     3
370
    35
100
AcDbCircle
 10
66.9275170266901
 20
34.34370123961226
 30
0.0
 40
2.5
100
AcDbArc
 50
90.0
 51
180.0
  0
ARC
  5
1A1
330
1F
100
AcDbEntity
  8
0
  6
Continuous
 62
     3
370
    35
100
AcDbCircle
 10
66.9275170266901
 20
60.34370123961224
 30
0.0
 40
2.5
100
AcDbArc
 50
0.0
 51
90.0
  0
ARC
  5
1A2
330
1F
100
AcDbEntity
  8
0
  6
Continuous
 62
     3
370
    35
100
AcDbCircle
 10
66.9275170266901
 20
60.34370123961224
 30
0.0
 40
2.5
100
AcDbArc
 50
270.0
 51
0.0
  0
ARC
  5
1A3
330
1F
100
AcDbEntity
  8
0
  6
Continuous
 62
     3
370
    35
100
AcDbCircle
 10
66.9275170266901
 20
60.34370123961224
 30
0.0
 40
2.5
100
AcDbArc
 50
180.0
 51
270.0
  0
ARC
  5
1A4
330
1F
100
AcDbEntity
  8
0
  6
Continuous
 62
     3
370
    35
100
AcDbCircle
 10
66.9275170266901
 20
60.34370123961224
 30
0.0
 40
2.5
100
AcDbArc
 50
90.0
 51
180.0
  0
ARC
  5
1A5
330
1F
100
AcDbEntity
  8
0
  6
Continuous
 62
     3
370
    35
100
AcDbCircle
 10
38.42751702669008
 20
64.84370123961224
 30
0.0
 40
2.5
100
AcDbArc
 50
0.0
 51
90.0
  0
ARC
  5
1A6
330
1F
100
AcDbEntity
  8
0
  6
Continuous
 62
     3
370
    35
100
AcDbCircle
 10
38.42751702669008
 20
29.84370123961226
 30
0.0
 40
2.5
100
AcDbArc
 50
270.0
 51
0.0
  0
LINE
  5
1A7
330
1F
100
AcDbEntity
  8
0
  6
Continuous
 62
     3
370
    35
100
AcDbLine
 10
40.92751702669008
 20
29.84370123961226
 30
0.0
 11
40.92751702669008
 21
64.84370123961224
 31
0.0
  0
LINE
  5
1A8
330
1F
100
AcDbEntity
  8
0
  6
Continuous
 62
     3
370
    35
100
AcDbLine
 10
33.92751702669008
 20
67.34370123961224
 30
0.0
 11
38.42751702669008
 21
67.34370123961224
 31
0.0
  0
LINE
  5
1A9
330
1F
100
AcDbEntity
  8
0
  6
Continuous
 62
     3
370
    35
100
AcDbLine
 10
33.92751702669008
 20
27.34370123961226
 30
0.0
 11
33.92751702669008
 21
67.34370123961224
 31
0.0
  0
LINE
  5
1AA
330
1F
100
AcDbEntity
  8
0
  6
Continuous
 62
     3
370
    35
100
AcDbLine
 10
33.92751702669008
 20
27.34370123961226
 30
0.0
 11
38.42751702669008
 21
27.34370123961226
 31
0.0
  0
LINE
  5
1AB
330
1F
100
AcDbEntity
  8
0
  6
Continuous
 62
     3
370
    35
100
AcDbLine
 10
43.92751702669008
 20
67.34370123961224
 30
0.0
 11
68.9275170266901
 21
67.34370123961224
 31
0.0
  0
LINE
  5
1AC
330
1F
100
AcDbEntity
  8
0
  6
Continuous
 62
     3
370
    35
100
AcDbLine
 10
73.9275170266901
 20
32.34370123961226
 30
0.0
 11
73.9275170266901
 21
62.34370123961224
 31
0.0
  0
LINE
  5
1AD
330
1F
100
AcDbEntity
  8
0
  6
Continuous
 62
     3
370
    35
100
AcDbLine
 10
43.92751702669008
 20
27.34370123961226
 30
0.0
 11
68.9275170266901
 21
27.34370123961226
 31
0.0
  0
ARC
  5
1AE
330
1F
100
AcDbEntity
  8
0
  6
Continuous
 62
     3
370
    35
100
AcDbCircle
 10
35.92751702669008
 20
-17.55284828946984
 30
0.0
 40
2.0
100
AcDbArc
 50
90.0
 51
180.0
  0
ARC
  5
1AF
330
1F
100
AcDbEntity
  8
0
  6
Continuous
 62
     3
370
    35
100
AcDbCircle
 10
35.92751702669008
 20
-43.55284828946984
 30
0.0
 40
2.0
100
AcDbArc
 50
180.0
 51
270.0
  0
LINE
  5
1B0
330
1F
100
AcDbEntity
  8
0
  6
DASHED2
 62
     3
370
    35
100
AcDbLine
 10
-72.86368279320274
 20
-43.55284828946981
 30
0.0
 11
-70.86368279320274
 21
-43.55284828946981
 31
0.0
  0
LINE
  5
1B1
330
1F
100
AcDbEntity
  8
0
  6
DASHED2
 62
     3
370
    35
100
AcDbLine
 10
-34.86368279320274
 20
-43.55284828946981
 30
0.0
 11
-32.86368279320274
 21
-43.55284828946981
 31
0.0
  0
LINE
  5
1B2
330
1F
100
AcDbEntity
  8
0
  6
DASHED2
 62
     3
370
    35
100
AcDbLine
 10
123.665242826632
 20
-43.55284828946982
 30
0.0
 11
128.165242826632
 21
-43.55284828946982
 31
0.0
  0
LINE
  5
1B3
330
1F
100
AcDbEntity
  8
0
  6
DASHED2
 62
     3
370
    35
100
AcDbLine
 10
159.165242826632
 20
-43.55284828946982
 30
0.0
 11
163.665242826632
 21
-43.55284828946982
 31
0.0
  0
LINE
  5
1B4
330
1F
100
AcDbEntity
  8
0
  6
DASHED2
 62
     3
370
    35
100
AcDbLine
 10
161.165242826632
 20
-17.55284828946983
 30
0.0
 11
163.665242826632
 21
-17.55284828946983
 31
0.0
  0
LINE
  5
1B5
330
1F
100
AcDbEntity
  8
0
  6
DASHED2
 62
     3
370
    35
100
AcDbLine
 10
123.665242826632
 20
-17.55284828946983
 30
0.0
 11
126.165242826632
 21
-17.55284828946983
 31
0.0
  0
LINE
  5
1B6
330
1F
100
AcDbEntity
  8
0
  6
DASHED2
 62
     7
370
    13
100
AcDbLine
 10
-50.36368279320275
 20
-43.55284828946981
 30
0.0
 11
-50.36368279320275
 21
-45.55284828946981
 31
0.0
  0
LINE
  5
1B7
330
1F
100
AcDbEntity
  8
0
  6
DASHED2
 62
     7
370
    13
100
AcDbLine
 10
-55.36368279320275
 20
-43.55284828946981
 30
0.0
 11
-55.36368279320275
 21
-45.55284828946981
 31
0.0
  0
LINE
  5
1B8
330
1F
100
AcDbEntity
  8
0
  6
DASHED2
 62
     7
370
    13
100
AcDbLine
 10
-65.36368279320274
 20
-43.55284828946981
 30
0.0
 11
-65.36368279320274
 21
-45.55284828946981
 31
0.0
  0
LINE
  5
1B9
330
1F
100
AcDbEntity
  8
0
  6
DASHED2
 62
     7
370
    13
100
AcDbLine
 10
-70.36368279320274
 20
-43.55284828946981
 30
0.0
 11
-70.36368279320274
 21
-45.55284828946981
 31
0.0
  0
LINE
  5
1BA
330
1F
100
AcDbEntity
  8
0
  6
DASHED2
 62
     7
370
    13
100
AcDbLine
 10
-35.36368279320274
 20
-43.55284828946981
 30
0.0
 11
-35.36368279320274
 21
-45.55284828946981
 31
0.0
  0
LINE
  5
1BB
330
1F
100
AcDbEntity
  8
0
  6
DASHED2
 62
     7
370
    13
100
AcDbLine
 10
-40.36368279320274
 20
-43.55284828946981
 30
0.0
 11
-40.36368279320274
 21
-45.55284828946981
 31
0.0
  0
LINE
  5
1BC
330
1F
100
AcDbEntity
  8
0
  6
DASHED2
 62
     7
370
    13
100
AcDbLine
 10
-139.1735735415982
 20
-45.55284828946983
 30
0.0
 11
-139.1735735415982
 21
-43.55284828946983
 31
0.0
  0
LINE
  5
1BD
330
1F
100
AcDbEntity
  8
0
  6
DASHED2
 62
     7
370
    13
100
AcDbLine
 10
-134.1735735415982
 20
-43.55284828946983
 30
0.0
 11
-134.1735735415982
 21
-45.55284828946983
 31
0.0
  0
LINE
  5
1BE
330
1F
100
AcDbEntity
  8
0
  6
DASHED2
 62
     7
370
    13
100
AcDbLine
 10
-129.1735735415982
 20
-43.55284828946983
 30
0.0
 11
-129.1735735415982
 21
-45.55284828946983
 31
0.0
  0
LINE
  5
1BF
330
1F
100
AcDbEntity
  8
0
  6
DASHED2
 62
     7
370
    13
100
AcDbLine
 10
-152.6735735415982
 20
67.34370123961224
 30
0.0
 11
-152.6735735415982
 21
27.34370123961224
 31
0.0
  0
LINE
  5
1C0
330
1F
100
AcDbEntity
  8
0
  6
DASHED2
 62
     7
370
    13
100
AcDbLine
 10
146.1652428266319
 20
-43.55284828946982
 30
0.0
 11
146.1652428266319
 21
-45.55284828946982
 31
0.0
  0
LINE
  5
1C1
330
1F
100
AcDbEntity
  8
0
  6
DASHED2
 62
     7
370
    13
100
AcDbLine
 10
141.1652428266319
 20
-43.55284828946982
 30
0.0
 11
141.1652428266319
 21
-45.55284828946982
 31
0.0
  0
LINE
  5
1C2
330
1F
100
AcDbEntity
  8
0
  6
DASHED2
 62
     7
370
    13
100
AcDbLine
 10
133.165242826632
 20
-43.55284828946982
 30
0.0
 11
133.165242826632
 21
-45.55284828946982
 31
0.0
  0
LINE
  5
1C3
330
1F
100
AcDbEntity
  8
0
  6
DASHED2
 62
     7
370
    13
100
AcDbLine
 10
128.165242826632
 20
-43.55284828946982
 30
0.0
 11
128.165242826632
 21
-45.55284828946982
 31
0.0
  0
LINE
  5
1C4
330
1F
100
AcDbEntity
  8
0
  6
DASHED2
 62
     7
370
    13
100
AcDbLine
 10
159.165242826632
 20
-43.55284828946982
 30
0.0
 11
159.165242826632
 21
-45.55284828946982
 31
0.0
  0
LINE
  5
1C5
330
1F
100
AcDbEntity
  8
0
  6
DASHED2
 62
     7
370
    13
100
AcDbLine
 10
154.1652428266319
 20
-43.55284828946982
 30
0.0
 11
154.1652428266319
 21
-45.55284828946982
 31
0.0
  0
LINE
  5
1C6
330
1F
100
AcDbEntity
  8
0
  6
DASHED2
 62
     7
370
    13
100
AcDbLine
 10
62.92751702669008
 20
-45.55284828946984
 30
0.0
 11
62.92751702669008
 21
-43.55284828946984
 31
0.0
  0
LINE
  5
1C7
330
1F
100
AcDbEntity
  8
0
  6
DASHED2
 62
     7
370
    13
100
AcDbLine
 10
52.92751702669008
 20
-45.55284828946984
 30
0.0
 11
52.92751702669008
 21
-43.55284828946984
 31
0.0
  0
LINE
  5
1C8
330
1F
100
AcDbEntity
  8
0
  6
DASHED2
 62
     7
370
    13
100
AcDbLine
 10
64.42751702669008
 20
-43.55284828946984
 30
0.0
 11
64.42751702669008
 21
-45.55284828946984
 31
0.0
  0
LINE
  5
1C9
330
1F
100
AcDbEntity
  8
0
  6
DASHED2
 62
     7
370
    13
100
AcDbLine
 10
69.42751702669008
 20
-43.55284828946984
 30
0.0
 11
69.42751702669008
 21
-45.55284828946984
 31
0.0
  0
LINE
  5
1CA
330
1F
100
AcDbEntity
  8
0
  6
DASHED2
 62
     7
370
    13
100
AcDbLine
 10
35.92751702669008
 20
27.34370123961226
 30
0.0
 11
35.92751702669008
 21
67.34370123961224
 31
0.0
  0
LINE
  5
1CB
330
1F
100
AcDbEntity
  8
0
  6
CENTER
 62
     7
370
    13
100
AcDbLine
 10
-67.86368279320274
 20
-41.97134871193777
 30
0.0
 11
-67.86368279320274
 21
-47.13434786700187
 31
0.0
  0
LINE
  5
1CC
330
1F
100
AcDbEntity
  8
0
  6
CENTER
 62
     7
370
    13
100
AcDbLine
 10
-37.86368279320274
 20
-41.97134871193777
 30
0.0
 11
-37.86368279320274
 21
-47.13434786700187
 31
0.0
  0
LINE
  5
1CD
330
1F
100
AcDbEntity
  8
0
  6
CENTER
 62
     7
370
    13
100
AcDbLine
 10
-136.6735735415982
 20
-42.30021400719671
 30
0.0
 11
-136.6735735415982
 21
-46.80893308770919
 31
0.0
  0
LINE
  5
1CE
330
1F
100
AcDbEntity
  8
0
  6
CENTER
 62
     7
370
    13
100
AcDbLine
 10
-131.6735735415982
 20
-42.30021400719671
 30
0.0
 11
-131.6735735415982
 21
-46.80893308770919
 31
0.0
  0
LINE
  5
1CF
330
1F
100
AcDbEntity
  8
0
  6
CENTER
 62
     7
370
    13
100
AcDbLine
 10
-52.86368279320275
 20
-41.97134871193777
 30
0.0
 11
-52.86368279320275
 21
-47.13434786700187
 31
0.0
  0
LINE
  5
1D0
330
1F
100
AcDbEntity
  8
0
  6
CENTER
 62
     7
370
    13
100
AcDbLine
 10
-131.6735735415982
 20
66.32924001292496
 30
0.0
 11
-131.6735735415982
 21
58.28285140846327
 31
0.0
  0
LINE
  5
1D1
330
1F
100
AcDbEntity
  8
0
  6
CENTER
 62
     7
370
    13
100
AcDbLine
 10
-131.6735735415982
 20
36.32923998751993
 30
0.0
 11
-131.6735735415982
 21
28.28285140846327
 31
0.0
  0
LINE
  5
1D2
330
1F
100
AcDbEntity
  8
0
  6
CENTER
 62
     7
370
    13
100
AcDbLine
 10
-134.1735735415982
 20
51.32924001292496
 30
0.0
 11
-134.1735735415982
 21
43.28285140846327
 31
0.0
  0
LINE
  5
1D3
330
1F
100
AcDbEntity
  8
0
  6
CENTER
 62
     7
370
    13
100
AcDbLine
 10
-135.6509165106555
 20
62.34370123961224
 30
0.0
 11
-127.6611338426862
 21
62.34370123961224
 31
0.0
  0
LINE
  5
1D4
330
1F
100
AcDbEntity
  8
0
  6
CENTER
 62
     7
370
    13
100
AcDbLine
 10
-135.6509165106555
 20
32.34370123961224
 30
0.0
 11
-127.6611338245435
 21
32.34370123961224
 31
0.0
  0
LINE
  5
1D5
330
1F
100
AcDbEntity
  8
0
  6
CENTER
 62
     7
370
    13
100
AcDbLine
 10
-140.6509165106555
 20
47.34370123961224
 30
0.0
 11
-127.6611338245436
 21
47.34370123961224
 31
0.0
  0
LINE
  5
1D6
330
1F
100
AcDbEntity
  8
0
  6
CENTER
 62
     7
370
    13
100
AcDbLine
 10
66.92751702669008
 20
-42.30021400719671
 30
0.0
 11
66.92751702669008
 21
-46.80893308770919
 31
0.0
  0
LINE
  5
1D7
330
1F
100
AcDbEntity
  8
0
  6
CENTER
 62
     7
370
    13
100
AcDbLine
 10
66.9275170266901
 20
64.32924001292496
 30
0.0
 11
66.9275170266901
 21
56.28285140846327
 31
0.0
  0
LINE
  5
1D8
330
1F
100
AcDbEntity
  8
0
  6
CENTER
 62
     7
370
    13
100
AcDbLine
 10
62.95017405763285
 20
60.34370123961224
 30
0.0
 11
70.93995672560213
 21
60.34370123961224
 31
0.0
  0
LINE
  5
1D9
330
1F
100
AcDbEntity
  8
0
  6
CENTER
 62
     7
370
    13
100
AcDbLine
 10
62.95017405763285
 20
34.34370123961226
 30
0.0
 11
70.93995674374479
 21
34.34370123961226
 31
0.0
  0
LINE
  5
1DA
330
1F
100
AcDbEntity
  8
0
  6
CENTER
 62
     7
370
    13
100
AcDbLine
 10
66.9275170266901
 20
38.32923998751994
 30
0.0
 11
66.9275170266901
 21
30.28285140846327
 31
0.0
  0
LINE
  5
1DB
330
1F
100
AcDbEntity
  8
0
  6
CENTER
 62
     7
370
    13
100
AcDbLine
 10
51.45017405763284
 20
47.34370123961224
 30
0.0
 11
64.43995674374472
 21
47.34370123961224
 31
0.0
  0
LINE
  5
1DC
330
1F
100
AcDbEntity
  8
0
  6
CENTER
 62
     7
370
    13
100
AcDbLine
 10
57.92751702669008
 20
51.32924001292496
 30
0.0
 11
57.92751702669008
 21
43.28285140846327
 31
0.0
  0
LINE
  5
1DD
330
1F
100
AcDbEntity
  8
0
  6
CENTER
 62
     7
370
    13
100
AcDbLine
 10
57.92751702669008
 20
-42.30021400719671
 30
0.0
 11
57.92751702669008
 21
-46.80893308770919
 31
0.0
  0
LINE
  5
1DE
330
1F
100
AcDbEntity
  8
0
  6
CENTER
 62
     7
370
    13
100
AcDbLine
 10
130.665242826632
 20
-41.97134871193776
 30
0.0
 11
130.665242826632
 21
-47.13434786700188
 31
0.0
  0
LINE
  5
1DF
330
1F
100
AcDbEntity
  8
0
  6
CENTER
 62
     7
370
    13
100
AcDbLine
 10
143.665242826632
 20
-41.97134871193776
 30
0.0
 11
143.665242826632
 21
-47.13434786700188
 31
0.0
  0
LINE
  5
1E0
330
1F
100
AcDbEntity
  8
0
  6
CENTER
 62
     7
370
    13
100
AcDbLine
 10
156.665242826632
 20
-41.97134871193776
 30
0.0
 11
156.665242826632
 21
-47.13434786700188
 31
0.0
  0
LINE
  5
1E1
330
1F
100
AcDbEntity
  8
0
  6
Continuous
 62
     7
370
    13
100
AcDbLine
 10
-124.6735735415982
 20
-43.55284828946983
 30
0.0
 11
-120.3750151976544
 21
-43.55284828946983
 31
0.0
  0
LINE
  5
1E2
330
1F
100
AcDbEntity
  8
0
  6
Continuous
 62
     7
370
    13
100
AcDbLine
 10
-124.6735735415982
 20
-45.55284828946983
 30
0.0
 11
-120.3750151976544
 21
-45.55284828946983
 31
0.0
  0
LINE
  5
1E3
330
1F
100
AcDbEntity
  8
0
  6
Continuous
 62
     7
370
    13
100
AcDbLine
 10
-121.3750151976544
 20
-43.55284828946983
 30
0.0
 11
-121.3750151976544
 21
-45.55284828946983
 31
0.0
  0
LINE
  5
1E4
330
1F
100
AcDbEntity
  8
0
  6
Continuous
 62
     7
370
    13
100
AcDbLine
 10
-156.6735735415982
 20
-15.55284828946983
 30
0.0
 11
-166.185393258427
 21
-15.55284828946983
 31
0.0
  0
LINE
  5
1E5
330
1F
100
AcDbEntity
  8
0
  6
Continuous
 62
     7
370
    13
100
AcDbLine
 10
-156.6735735415982
 20
-45.55284828946983
 30
0.0
 11
-166.185393258427
 21
-45.55284828946983
 31
0.0
  0
LINE
  5
1E6
330
1F
100
AcDbEntity
  8
0
  6
Continuous
 62
     7
370
    13
100
AcDbLine
 10
-154.6735735415982
 20
-47.55284828946983
 30
0.0
 11
-154.6735735415982
 21
-60.54690818821226
 31
0.0
  0
LINE
  5
1E7
330
1F
100
AcDbEntity
  8
0
  6
Continuous
 62
     7
370
    13
100
AcDbLine
 10
-126.6735735415982
 20
-47.55284828946983
 30
0.0
 11
-126.6735735415982
 21
-60.54690818821226
 31
0.0
  0
LINE
  5
1E8
330
1F
100
AcDbEntity
  8
0
  6
Continuous
 62
     7
370
    13
100
AcDbLine
 10
-154.6735735415982
 20
-13.55284828946983
 30
0.0
 11
-154.6735735415982
 21
-9.69281419902747
 31
0.0
  0
LINE
  5
1E9
330
1F
100
AcDbEntity
  8
0
  6
Continuous
 62
     7
370
    13
100
AcDbLine
 10
-144.6735735415982
 20
-15.55284828946983
 30
0.0
 11
-144.6735735415982
 21
-3.664145369192173
 31
0.0
  0
LINE
  5
1EA
330
1F
100
AcDbEntity
  8
0
  6
Continuous
 62
     7
370
    13
100
AcDbLine
 10
-154.6735735415982
 20
-13.55284828946983
 30
0.0
 11
-154.6735735415982
 21
-3.664145369192173
 31
0.0
  0
LINE
  5
1EB
330
1F
100
AcDbEntity
  8
0
  6
Continuous
 62
     7
370
    13
100
AcDbLine
 10
-72.86368279320274
 20
-47.55284828946981
 30
0.0
 11
-72.86368279320274
 21
-60.54690818821226
 31
0.0
  0
LINE
  5
1EC
330
1F
100
AcDbEntity
  8
0
  6
Continuous
 62
     7
370
    13
100
AcDbLine
 10
-32.86368279320274
 20
-47.55284828946981
 30
0.0
 11
-32.86368279320274
 21
-60.54690818821226
 31
0.0
  0
LINE
  5
1ED
330
1F
100
AcDbEntity
  8
0
  6
Continuous
 62
     7
370
    13
100
AcDbLine
 10
-74.86368279320274
 20
-15.55284828946983
 30
0.0
 11
-85.42808988764045
 21
-15.55284828946983
 31
0.0
  0
LINE
  5
1EE
330
1F
100
AcDbEntity
  8
0
  6
Continuous
 62
     7
370
    13
100
AcDbLine
 10
-74.86368279320274
 20
-45.55284828946981
 30
0.0
 11
-85.42808988764045
 21
-45.55284828946981
 31
0.0
  0
LINE
  5
1EF
330
1F
100
AcDbEntity
  8
0
  6
Continuous
 62
     7
370
    13
100
AcDbLine
 10
-156.6735735415982
 20
67.34370123961224
 30
0.0
 11
-166.185393258427
 21
67.34370123961224
 31
0.0
  0
LINE
  5
1F0
330
1F
100
AcDbEntity
  8
0
  6
Continuous
 62
     7
370
    13
100
AcDbLine
 10
-156.6735735415982
 20
27.34370123961224
 30
0.0
 11
-166.185393258427
 21
27.34370123961224
 31
0.0
  0
LINE
  5
1F1
330
1F
100
AcDbEntity
  8
0
  6
Continuous
 62
     7
370
    13
100
AcDbLine
 10
-129.6735735415982
 20
49.84370123961224
 30
0.0
 11
-118.6937841772135
 21
49.84370123961224
 31
0.0
  0
LINE
  5
1F2
330
1F
100
AcDbEntity
  8
0
  6
Continuous
 62
     7
370
    13
100
AcDbLine
 10
-129.6735735415982
 20
44.84370123961224
 30
0.0
 11
-118.6937841772135
 21
44.84370123961224
 31
0.0
  0
LINE
  5
1F3
330
1F
100
AcDbEntity
  8
0
  6
Continuous
 62
     7
370
    13
100
AcDbLine
 10
-119.6937841772135
 20
49.84370123961224
 30
0.0
 11
-119.6937841772135
 21
44.84370123961224
 31
0.0
  0
LINE
  5
1F4
330
1F
100
AcDbEntity
  8
0
  6
Continuous
 62
     7
370
    13
100
AcDbLine
 10
-127.6560363706187
 20
27.34370123961224
 30
0.0
 11
-108.1224719101124
 21
27.34370123961224
 31
0.0
  0
LINE
  5
1F5
330
1F
100
AcDbEntity
  8
0
  6
Continuous
 62
     7
370
    13
100
AcDbLine
 10
-125.6611338245435
 20
32.34370123961224
 30
0.0
 11
-108.1224719101124
 21
32.34370123961224
 31
0.0
  0
LINE
  5
1F6
330
1F
100
AcDbEntity
  8
0
  6
Continuous
 62
     7
370
    13
100
AcDbLine
 10
-109.1224719101124
 20
27.34370123961224
 30
0.0
 11
-109.1224719101124
 21
32.34370123961224
 31
0.0
  0
LINE
  5
1F7
330
1F
100
AcDbEntity
  8
0
  6
Continuous
 62
     7
370
    13
100
AcDbLine
 10
-125.6611338426862
 20
62.34370123961224
 30
0.0
 11
-108.1224719101124
 21
62.34370123961224
 31
0.0
  0
LINE
  5
1F8
330
1F
100
AcDbEntity
  8
0
  6
Continuous
 62
     7
370
    13
100
AcDbLine
 10
-127.6560363706187
 20
67.34370123961224
 30
0.0
 11
-108.1224719101124
 21
67.34370123961224
 31
0.0
  0
LINE
  5
1F9
330
1F
100
AcDbEntity
  8
0
  6
Continuous
 62
     7
370
    13
100
AcDbLine
 10
-109.1224719101124
 20
62.34370123961224
 30
0.0
 11
-109.1224719101124
 21
67.34370123961224
 31
0.0
  0
LINE
  5
1FA
330
1F
100
AcDbEntity
  8
0
  6
Continuous
 62
     7
370
    13
100
AcDbLine
 10
-117.3167842987219
 20
47.34370123961224
 30
0.0
 11
-108.1224719101124
 21
47.34370123961224
 31
0.0
  0
LINE
  5
1FB
330
1F
100
AcDbEntity
  8
0
  6
Continuous
 62
     7
370
    13
100
AcDbLine
 10
-126.6735735415982
 20
66.2724811750663
 30
0.0
 11
-126.6735735415982
 21
79.92298993471907
 31
0.0
  0
LINE
  5
1FC
330
1F
100
AcDbEntity
  8
0
  6
Continuous
 62
     7
370
    13
100
AcDbLine
 10
-154.6735735415982
 20
69.34370123961224
 30
0.0
 11
-154.6735735415982
 21
79.92298993471907
 31
0.0
  0
LINE
  5
1FD
330
1F
100
AcDbEntity
  8
0
  6
Continuous
 62
     7
370
    13
100
AcDbLine
 10
-129.1735735415982
 20
49.34370123961224
 30
0.0
 11
-129.1735735415982
 21
54.32924001292496
 31
0.0
  0
LINE
  5
1FE
330
1F
100
AcDbEntity
  8
0
  6
Continuous
 62
     7
370
    13
100
AcDbLine
 10
-139.1735735415982
 20
49.34370123961224
 30
0.0
 11
-139.1735735415982
 21
54.32924001292496
 31
0.0
  0
LINE
  5
1FF
330
1F
100
AcDbEntity
  8
0
  6
Continuous
 62
     7
370
    13
100
AcDbLine
 10
-126.6735735415982
 20
28.66376983938309
 30
0.0
 11
-126.6735735415982
 21
18.91578781335015
 31
0.0
  0
LINE
  5
200
330
1F
100
AcDbEntity
  8
0
  6
Continuous
 62
     7
370
    13
100
AcDbLine
 10
-131.6735735415982
 20
26.28285140846327
 30
0.0
 11
-131.6735735415982
 21
18.91578781335015
 31
0.0
  0
LINE
  5
201
330
1F
100
AcDbEntity
  8
0
  6
Continuous
 62
     7
370
    13
100
AcDbLine
 10
-134.1735735415982
 20
41.28285140846327
 30
0.0
 11
-134.1735735415982
 21
18.91578781335015
 31
0.0
  0
LINE
  5
202
330
1F
100
AcDbEntity
  8
0
  6
Continuous
 62
     7
370
    13
100
AcDbLine
 10
-134.1735735415982
 20
19.91578781335015
 30
0.0
 11
-131.6735735415982
 21
19.91578781335015
 31
0.0
  0
LINE
  5
203
330
1F
100
AcDbEntity
  8
0
  6
Continuous
 62
     7
370
    13
100
AcDbLine
 10
-126.6735735415982
 20
28.66376983938309
 30
0.0
 11
-126.6735735415982
 21
18.91578781335015
 31
0.0
  0
LINE
  5
204
330
1F
100
AcDbEntity
  8
0
  6
Continuous
 62
     7
370
    13
100
AcDbLine
 10
31.92751702669008
 20
67.34370123961226
 30
0.0
 11
21.35842696629214
 21
67.34370123961226
 31
0.0
  0
LINE
  5
205
330
1F
100
AcDbEntity
  8
0
  6
Continuous
 62
     7
370
    13
100
AcDbLine
 10
31.92751702669008
 20
27.34370123961226
 30
0.0
 11
21.35842696629214
 21
27.34370123961226
 31
0.0
  0
LINE
  5
206
330
1F
100
AcDbEntity
  8
0
  6
Continuous
 62
     7
370
    13
100
AcDbLine
 10
73.9275170266901
 20
64.85408264325197
 30
0.0
 11
73.9275170266901
 21
79.92298993471908
 31
0.0
  0
LINE
  5
207
330
1F
100
AcDbEntity
  8
0
  6
Continuous
 62
     7
370
    13
100
AcDbLine
 10
33.92751702669008
 20
69.34370123961226
 30
0.0
 11
33.92751702669008
 21
79.92298993471908
 31
0.0
  0
LINE
  5
208
330
1F
100
AcDbEntity
  8
0
  6
Continuous
 62
     7
370
    13
100
AcDbLine
 10
73.9275170266901
 20
27.34370123961226
 30
0.0
 11
73.9275170266901
 21
19.13980137384042
 31
0.0
  0
LINE
  5
209
330
1F
100
AcDbEntity
  8
0
  6
Continuous
 62
     7
370
    13
100
AcDbLine
 10
66.9275170266901
 20
28.28285140846327
 30
0.0
 11
66.9275170266901
 21
19.13980137384042
 31
0.0
  0
LINE
  5
20A
330
1F
100
AcDbEntity
  8
0
  6
Continuous
 62
     7
370
    13
100
AcDbLine
 10
57.92751702669008
 20
41.28285140846327
 30
0.0
 11
57.92751702669008
 21
19.13980137384042
 31
0.0
  0
LINE
  5
20B
330
1F
100
AcDbEntity
  8
0
  6
Continuous
 62
     7
370
    13
100
AcDbLine
 10
73.9275170266901
 20
30.34370123961226
 30
0.0
 11
73.9275170266901
 21
19.13980137384042
 31
0.0
  0
LINE
  5
20C
330
1F
100
AcDbEntity
  8
0
  6
Continuous
 62
     7
370
    13
100
AcDbLine
 10
52.92751702669011
 20
49.34370123961224
 30
0.0
 11
52.92751702669011
 21
54.56320349437155
 31
0.0
  0
LINE
  5
20D
330
1F
100
AcDbEntity
  8
0
  6
Continuous
 62
     7
370
    13
100
AcDbLine
 10
62.92751702669008
 20
49.34370123961224
 30
0.0
 11
62.92751702669008
 21
54.56320349437155
 31
0.0
  0
LINE
  5
20E
330
1F
100
AcDbEntity
  8
0
  6
Continuous
 62
     7
370
    13
100
AcDbLine
 10
62.4275170266901
 20
49.84370123961224
 30
0.0
 11
70.40106364926638
 21
49.84370123961224
 31
0.0
  0
LINE
  5
20F
330
1F
100
AcDbEntity
  8
0
  6
Continuous
 62
     7
370
    13
100
AcDbLine
 10
62.4275170266901
 20
44.84370123961224
 30
0.0
 11
70.40106364926638
 21
44.84370123961224
 31
0.0
  0
LINE
  5
210
330
1F
100
AcDbEntity
  8
0
  6
Continuous
 62
     7
370
    13
100
AcDbLine
 10
69.40106364926638
 20
49.84370123961224
 30
0.0
 11
69.40106364926638
 21
44.84370123961224
 31
0.0
  0
LINE
  5
211
330
1F
100
AcDbEntity
  8
0
  6
Continuous
 62
     7
370
    13
100
AcDbLine
 10
70.9275170266901
 20
27.34370123961226
 30
0.0
 11
83.93616037576246
 21
27.34370123961226
 31
0.0
  0
LINE
  5
212
330
1F
100
AcDbEntity
  8
0
  6
Continuous
 62
     7
370
    13
100
AcDbLine
 10
72.91606696442986
 20
34.34370123961226
 30
0.0
 11
83.93616037576246
 21
34.34370123961226
 31
0.0
  0
LINE
  5
213
330
1F
100
AcDbEntity
  8
0
  6
Continuous
 62
     7
370
    13
100
AcDbLine
 10
72.93995672560213
 20
60.34370123961224
 30
0.0
 11
83.93616037576246
 21
60.34370123961224
 31
0.0
  0
LINE
  5
214
330
1F
100
AcDbEntity
  8
0
  6
Continuous
 62
     7
370
    13
100
AcDbLine
 10
70.9275170266901
 20
67.34370123961224
 30
0.0
 11
83.93616037576246
 21
67.34370123961224
 31
0.0
  0
LINE
  5
215
330
1F
100
AcDbEntity
  8
0
  6
Continuous
 62
     7
370
    13
100
AcDbLine
 10
72.02888827967652
 20
47.34370123961224
 30
0.0
 11
83.93616037576246
 21
47.34370123961224
 31
0.0
  0
LINE
  5
216
330
1F
100
AcDbEntity
  8
0
  6
Continuous
 62
     7
370
    13
100
AcDbLine
 10
31.92751702669008
 20
-15.55284828946984
 30
0.0
 11
21.35842696629214
 21
-15.55284828946984
 31
0.0
  0
LINE
  5
217
330
1F
100
AcDbEntity
  8
0
  6
Continuous
 62
     7
370
    13
100
AcDbLine
 10
31.92751702669008
 20
-45.55284828946984
 30
0.0
 11
21.35842696629214
 21
-45.55284828946984
 31
0.0
  0
LINE
  5
218
330
1F
100
AcDbEntity
  8
0
  6
Continuous
 62
     7
370
    13
100
AcDbLine
 10
43.92751702669008
 20
-15.55284828946984
 30
0.0
 11
43.92751702669008
 21
-3.850945046148464
 31
0.0
  0
LINE
  5
219
330
1F
100
AcDbEntity
  8
0
  6
Continuous
 62
     7
370
    13
100
AcDbLine
 10
33.92751702669008
 20
-13.55284828946984
 30
0.0
 11
33.92751702669008
 21
-3.850945046148464
 31
0.0
  0
LINE
  5
21A
330
1F
100
AcDbEntity
  8
0
  6
Continuous
 62
     7
370
    13
100
AcDbLine
 10
33.92751702669008
 20
-13.55284828946984
 30
0.0
 11
33.92751702669008
 21
-9.692814199027481
 31
0.0
  0
LINE
  5
21B
330
1F
100
AcDbEntity
  8
0
  6
Continuous
 62
     7
370
    13
100
AcDbLine
 10
43.92751702669008
 20
-15.55284828946984
 30
0.0
 11
43.92751702669008
 21
-9.692814199027481
 31
0.0
  0
LINE
  5
21C
330
1F
100
AcDbEntity
  8
0
  6
Continuous
 62
     7
370
    13
100
AcDbLine
 10
33.92751702669008
 20
-47.55284828946984
 30
0.0
 11
33.92751702669008
 21
-60.73370786516855
 31
0.0
  0
LINE
  5
21D
330
1F
100
AcDbEntity
  8
0
  6
Continuous
 62
     7
370
    13
100
AcDbLine
 10
73.92751702669008
 20
-47.55284828946984
 30
0.0
 11
73.92751702669008
 21
-60.73370786516855
 31
0.0
  0
LINE
  5
21E
330
1F
100
AcDbEntity
  8
0
  6
Continuous
 62
     7
370
    13
100
AcDbLine
 10
75.92751702669008
 20
-43.55284828946984
 30
0.0
 11
80.22607537063394
 21
-43.55284828946984
 31
0.0
  0
LINE
  5
21F
330
1F
100
AcDbEntity
  8
0
  6
Continuous
 62
     7
370
    13
100
AcDbLine
 10
75.92751702669008
 20
-45.55284828946984
 30
0.0
 11
80.22607537063394
 21
-45.55284828946984
 31
0.0
  0
LINE
  5
220
330
1F
100
AcDbEntity
  8
0
  6
Continuous
 62
     7
370
    13
100
AcDbLine
 10
79.22607537063394
 20
-43.55284828946984
 30
0.0
 11
79.22607537063394
 21
-45.55284828946984
 31
0.0
  0
LINE
  5
221
330
1F
100
AcDbEntity
  8
0
  6
Continuous
 62
     7
370
    13
100
AcDbLine
 10
123.665242826632
 20
-47.55284828946982
 30
0.0
 11
123.665242826632
 21
-60.73370786516855
 31
0.0
  0
LINE
  5
222
330
1F
100
AcDbEntity
  8
0
  6
Continuous
 62
     7
370
    13
100
AcDbLine
 10
163.665242826632
 20
-47.55284828946982
 30
0.0
 11
163.665242826632
 21
-60.73370786516855
 31
0.0
  0
LINE
  5
223
330
1F
100
AcDbEntity
  8
0
  6
Continuous
 62
     7
370
    13
100
AcDbLine
 10
121.665242826632
 20
-15.55284828946983
 30
0.0
 11
111.7932584269663
 21
-15.55284828946983
 31
0.0
  0
LINE
  5
224
330
1F
100
AcDbEntity
  8
0
  6
Continuous
 62
     7
370
    13
100
AcDbLine
 10
121.665242826632
 20
-45.55284828946982
 30
0.0
 11
111.7932584269663
 21
-45.55284828946982
 31
0.0
  0
LINE
  5
225
330
1F
100
AcDbEntity
  8
0
  6
Continuous
 62
     7
370
    13
100
AcDbLine
 10
-120.0321045021066
 20
78.75195456625133
 30
0.0
 11
-105.3321045021066
 21
78.75195456625133
 31
0.0
  0
LINE
  5
226
330
1F
100
AcDbEntity
  8
0
  6
Continuous
 62
     7
370
    13
100
AcDbLine
 10
78.67653302935103
 20
76.7106721909021
 30
0.0
 11
93.37653302935104
 21
76.7106721909021
 31
0.0
  0
LINE
  5
227
330
1F
100
AcDbEntity
  8
0
  6
Continuous
 62
     7
370
    13
100
AcDbLine
 10
-121.3750151976544
 20
-37.70284828946982
 30
0.0
 11
-121.3750151976544
 21
-43.55284828946983
 31
0.0
  0
INSERT
  5
22E
330
1F
100
AcDbEntity
  8
0
 62
     7
100
AcDbBlockReference
  2
_OPEN30
 10
-121.3750151976544
 20
-43.55284828946983
 30
0.0
 41
3.000002807615286
 42
2.999989368223643
 50
270.0
  0
LINE
  5
22F
330
1F
100
AcDbEntity
  8
0
  6
Continuous
 62
     7
370
    13
100
AcDbLine
 10
-121.3750151976544
 20
-47.55284828946983
 30
0.0
 11
-121.3750151976544
 21
-45.55284828946983
 31
0.0
  0
INSERT
  5
230
330
1F
100
AcDbEntity
  8
0
 62
     7
100
AcDbBlockReference
  2
_OPEN30
 10
-121.3750151976544
 20
-45.55284828946983
 30
0.0
 41
3.000002807615286
 42
2.999989368223643
 50
90.0
  0
LINE
  5
231
330
1F
100
AcDbEntity
  8
0
  6
Continuous
 62
     7
370
    13
100
AcDbLine
 10
-119.6937841772135
 20
51.84370123961224
 30
0.0
 11
-119.6937841772135
 21
49.84370123961224
 31
0.0
  0
INSERT
  5
232
330
1F
100
AcDbEntity
  8
0
 62
     7
100
AcDbBlockReference
  2
_OPEN30
 10
-119.6937841772135
 20
49.84370123961224
 30
0.0
 41
3.000002807615286
 42
2.999989368223643
 50
270.0
  0
LINE
  5
233
330
1F
100
AcDbEntity
  8
0
  6
Continuous
 62
     7
370
    13
100
AcDbLine
 10
-119.6937841772135
 20
42.84370123961224
 30
0.0
 11
-119.6937841772135
 21
44.84370123961224
 31
0.0
  0
INSERT
  5
234
330
1F
100
AcDbEntity
  8
0
 62
     7
100
AcDbBlockReference
  2
_OPEN30
 10
-119.6937841772135
 20
44.84370123961224
 30
0.0
 41
3.000002807615286
 42
2.999989368223643
 50
90.0
  0
LINE
  5
235
330
1F
100
AcDbEntity
  8
0
  6
Continuous
 62
     7
370
    13
100
AcDbLine
 10
-109.1224719101124
 20
21.49370123961224
 30
0.0
 11
-109.1224719101124
 21
27.34370123961224
 31
0.0
  0
INSERT
  5
236
330
1F
100
AcDbEntity
  8
0
 62
     7
100
AcDbBlockReference
  2
_OPEN30
 10
-109.1224719101124
 20
27.34370123961224
 30
0.0
 41
3.000002807615286
 42
2.999989368223643
 50
90.0
  0
LINE
  5
237
330
1F
100
AcDbEntity
  8
0
  6
Continuous
 62
     7
370
    13
100
AcDbLine
 10
-109.1224719101124
 20
73.19370123961224
 30
0.0
 11
-109.1224719101124
 21
67.34370123961224
 31
0.0
  0
INSERT
  5
238
330
1F
100
AcDbEntity
  8
0
 62
     7
100
AcDbBlockReference
  2
_OPEN30
 10
-109.1224719101124
 20
67.34370123961224
 30
0.0
 41
3.000002807615286
 42
2.999989368223643
 50
270.0
  0
LINE
  5
239
330
1F
100
AcDbEntity
  8
0
  6
Continuous
 62
     7
370
    13
100
AcDbLine
 10
-143.5235735415982
 20
19.91578781335015
 30
0.0
 11
-134.1735735415982
 21
19.91578781335015
 31
0.0
  0
INSERT
  5
23A
330
1F
100
AcDbEntity
  8
0
 62
     7
100
AcDbBlockReference
  2
_OPEN30
 10
-134.1735735415982
 20
19.91578781335015
 30
0.0
 41
3.000002807615286
 42
2.999989368223643
 50
360.0
  0
LINE
  5
23B
330
1F
100
AcDbEntity
  8
0
  6
Continuous
 62
     7
370
    13
100
AcDbLine
 10
-120.8235735415982
 20
19.91578781335015
 30
0.0
 11
-126.6735735415982
 21
19.91578781335015
 31
0.0
  0
INSERT
  5
23C
330
1F
100
AcDbEntity
  8
0
 62
     7
100
AcDbBlockReference
  2
_OPEN30
 10
-126.6735735415982
 20
19.91578781335015
 30
0.0
 41
3.000002807615286
 42
2.999989368223643
 50
180.0
  0
LINE
  5
23D
330
1F
100
AcDbEntity
  8
0
  6
Continuous
 62
     7
370
    13
100
AcDbLine
 10
69.40106364926638
 20
51.84370123961224
 30
0.0
 11
69.40106364926638
 21
49.84370123961224
 31
0.0
  0
INSERT
  5
23E
330
1F
100
AcDbEntity
  8
0
 62
     7
100
AcDbBlockReference
  2
_OPEN30
 10
69.40106364926638
 20
49.84370123961224
 30
0.0
 41
3.000002807615286
 42
2.999989368223643
 50
270.0
  0
LINE
  5
23F
330
1F
100
AcDbEntity
  8
0
  6
Continuous
 62
     7
370
    13
100
AcDbLine
 10
69.40106364926638
 20
42.84370123961224
 30
0.0
 11
69.40106364926638
 21
44.84370123961224
 31
0.0
  0
INSERT
  5
240
330
1F
100
AcDbEntity
  8
0
 62
     7
100
AcDbBlockReference
  2
_OPEN30
 10
69.40106364926638
 20
44.84370123961224
 30
0.0
 41
3.000002807615286
 42
2.999989368223643
 50
90.0
  0
LINE
  5
241
330
1F
100
AcDbEntity
  8
0
  6
Continuous
 62
     7
370
    13
100
AcDbLine
 10
79.22607537063394
 20
-37.70284828946983
 30
0.0
 11
79.22607537063394
 21
-43.55284828946984
 31
0.0
  0
INSERT
  5
242
330
1F
100
AcDbEntity
  8
0
 62
     7
100
AcDbBlockReference
  2
_OPEN30
 10
79.22607537063394
 20
-43.55284828946984
 30
0.0
 41
3.000002807615286
 42
2.999989368223643
 50
270.0
  0
LINE
  5
243
330
1F
100
AcDbEntity
  8
0
  6
Continuous
 62
     7
370
    13
100
AcDbLine
 10
79.22607537063394
 20
-47.55284828946984
 30
0.0
 11
79.22607537063394
 21
-45.55284828946984
 31
0.0
  0
INSERT
  5
244
330
1F
100
AcDbEntity
  8
0
 62
     7
100
AcDbBlockReference
  2
_OPEN30
 10
79.22607537063394
 20
-45.55284828946984
 30
0.0
 41
3.000002807615286
 42
2.999989368223643
 50
90.0
  0
LINE
  5
245
330
1F
100
AcDbEntity
  8
0
  6
Continuous
 62
     7
370
    13
100
AcDbLine
 10
-165.185393258427
 20
-45.55284828946983
 30
0.0
 11
-165.185393258427
 21
-15.55284828946983
 31
0.0
  0
INSERT
  5
246
330
1F
100
AcDbEntity
  8
0
 62
     7
100
AcDbBlockReference
  2
_OPEN30
 10
-165.185393258427
 20
-45.55284828946983
 30
0.0
 41
3.000002807615286
 42
2.999989368223643
 50
270.0
  0
INSERT
  5
247
330
1F
100
AcDbEntity
  8
0
 62
     7
100
AcDbBlockReference
  2
_OPEN30
 10
-165.185393258427
 20
-15.55284828946983
 30
0.0
 41
3.000002807615286
 42
2.999989368223643
 50
90.0
  0
LINE
  5
248
330
1F
100
AcDbEntity
  8
0
  6
Continuous
 62
     7
370
    13
100
AcDbLine
 10
-154.6735735415982
 20
-59.54690818821226
 30
0.0
 11
-126.6735735415982
 21
-59.54690818821226
 31
0.0
  0
INSERT
  5
249
330
1F
100
AcDbEntity
  8
0
 62
     7
100
AcDbBlockReference
  2
_OPEN30
 10
-154.6735735415982
 20
-59.54690818821226
 30
0.0
 41
3.000002807615286
 42
2.999989368223643
 50
180.0
  0
INSERT
  5
24A
330
1F
100
AcDbEntity
  8
0
 62
     7
100
AcDbBlockReference
  2
_OPEN30
 10
-126.6735735415982
 20
-59.54690818821226
 30
0.0
 41
3.000002807615286
 42
2.999989368223643
 50
360.0
  0
LINE
  5
24B
330
1F
100
AcDbEntity
  8
0
  6
Continuous
 62
     7
370
    13
100
AcDbLine
 10
-154.6735735415982
 20
-4.664145369192173
 30
0.0
 11
-144.6735735415982
 21
-4.664145369192173
 31
0.0
  0
INSERT
  5
24C
330
1F
100
AcDbEntity
  8
0
 62
     7
100
AcDbBlockReference
  2
_OPEN30
 10
-154.6735735415982
 20
-4.664145369192173
 30
0.0
 41
3.000002807615286
 42
2.999989368223643
 50
180.0
  0
INSERT
  5
24D
330
1F
100
AcDbEntity
  8
0
 62
     7
100
AcDbBlockReference
  2
_OPEN30
 10
-144.6735735415982
 20
-4.664145369192173
 30
0.0
 41
3.000002807615286
 42
2.999989368223643
 50
360.0
  0
LINE
  5
24E
330
1F
100
AcDbEntity
  8
0
  6
Continuous
 62
     7
370
    13
100
AcDbLine
 10
-72.86368279320274
 20
-59.54690818821226
 30
0.0
 11
-32.86368279320274
 21
-59.54690818821226
 31
0.0
  0
INSERT
  5
24F
330
1F
100
AcDbEntity
  8
0
 62
     7
100
AcDbBlockReference
  2
_OPEN30
 10
-72.86368279320274
 20
-59.54690818821226
 30
0.0
 41
3.000002807615286
 42
2.999989368223643
 50
180.0
  0
INSERT
  5
250
330
1F
100
AcDbEntity
  8
0
 62
     7
100
AcDbBlockReference
  2
_OPEN30
 10
-32.86368279320274
 20
-59.54690818821226
 30
0.0
 41
3.000002807615286
 42
2.999989368223643
 50
360.0
  0
LINE
  5
251
330
1F
100
AcDbEntity
  8
0
  6
Continuous
 62
     7
370
    13
100
AcDbLine
 10
-84.42808988764045
 20
-45.55284828946981
 30
0.0
 11
-84.42808988764045
 21
-15.55284828946983
 31
0.0
  0
INSERT
  5
252
330
1F
100
AcDbEntity
  8
0
 62
     7
100
AcDbBlockReference
  2
_OPEN30
 10
-84.42808988764045
 20
-45.55284828946981
 30
0.0
 41
3.000002807615286
 42
2.999989368223643
 50
270.0
  0
INSERT
  5
253
330
1F
100
AcDbEntity
  8
0
 62
     7
100
AcDbBlockReference
  2
_OPEN30
 10
-84.42808988764045
 20
-15.55284828946983
 30
0.0
 41
3.000002807615286
 42
2.999989368223643
 50
90.0
  0
LINE
  5
254
330
1F
100
AcDbEntity
  8
0
  6
Continuous
 62
     7
370
    13
100
AcDbLine
 10
-165.185393258427
 20
27.34370123961224
 30
0.0
 11
-165.185393258427
 21
67.34370123961224
 31
0.0
  0
INSERT
  5
255
330
1F
100
AcDbEntity
  8
0
 62
     7
100
AcDbBlockReference
  2
_OPEN30
 10
-165.185393258427
 20
27.34370123961224
 30
0.0
 41
3.000002807615286
 42
2.999989368223643
 50
270.0
  0
INSERT
  5
256
330
1F
100
AcDbEntity
  8
0
 62
     7
100
AcDbBlockReference
  2
_OPEN30
 10
-165.185393258427
 20
67.34370123961224
 30
0.0
 41
3.000002807615286
 42
2.999989368223643
 50
90.0
  0
LINE
  5
257
330
1F
100
AcDbEntity
  8
0
  6
Continuous
 62
     7
370
    13
100
AcDbLine
 10
-109.1224719101124
 20
32.34370123961224
 30
0.0
 11
-109.1224719101124
 21
47.34370123961224
 31
0.0
  0
INSERT
  5
258
330
1F
100
AcDbEntity
  8
0
 62
     7
100
AcDbBlockReference
  2
_OPEN30
 10
-109.1224719101124
 20
32.34370123961224
 30
0.0
 41
3.000002807615286
 42
2.999989368223643
 50
270.0
  0
INSERT
  5
259
330
1F
100
AcDbEntity
  8
0
 62
     7
100
AcDbBlockReference
  2
_OPEN30
 10
-109.1224719101124
 20
47.34370123961224
 30
0.0
 41
3.000002807615286
 42
2.999989368223643
 50
90.0
  0
LINE
  5
25A
330
1F
100
AcDbEntity
  8
0
  6
Continuous
 62
     7
370
    13
100
AcDbLine
 10
-109.1224719101124
 20
47.34370123961224
 30
0.0
 11
-109.1224719101124
 21
62.34370123961224
 31
0.0
  0
INSERT
  5
25B
330
1F
100
AcDbEntity
  8
0
 62
     7
100
AcDbBlockReference
  2
_OPEN30
 10
-109.1224719101124
 20
47.34370123961224
 30
0.0
 41
3.000002807615286
 42
2.999989368223643
 50
270.0
  0
INSERT
  5
25C
330
1F
100
AcDbEntity
  8
0
 62
     7
100
AcDbBlockReference
  2
_OPEN30
 10
-109.1224719101124
 20
62.34370123961224
 30
0.0
 41
3.000002807615286
 42
2.999989368223643
 50
90.0
  0
LINE
  5
25D
330
1F
100
AcDbEntity
  8
0
  6
Continuous
 62
     7
370
    13
100
AcDbLine
 10
-154.6735735415982
 20
78.92298993471907
 30
0.0
 11
-126.6735735415982
 21
78.92298993471907
 31
0.0
  0
INSERT
  5
25E
330
1F
100
AcDbEntity
  8
0
 62
     7
100
AcDbBlockReference
  2
_OPEN30
 10
-154.6735735415982
 20
78.92298993471907
 30
0.0
 41
3.000002807615286
 42
2.999989368223643
 50
180.0
  0
INSERT
  5
25F
330
1F
100
AcDbEntity
  8
0
 62
     7
100
AcDbBlockReference
  2
_OPEN30
 10
-126.6735735415982
 20
78.92298993471907
 30
0.0
 41
3.000002807615286
 42
2.999989368223643
 50
360.0
  0
LINE
  5
260
330
1F
100
AcDbEntity
  8
0
  6
Continuous
 62
     7
370
    13
100
AcDbLine
 10
-139.1735735415982
 20
53.32924001292496
 30
0.0
 11
-129.1735735415982
 21
53.32924001292496
 31
0.0
  0
INSERT
  5
261
330
1F
100
AcDbEntity
  8
0
 62
     7
100
AcDbBlockReference
  2
_OPEN30
 10
-139.1735735415982
 20
53.32924001292496
 30
0.0
 41
3.000002807615286
 42
2.999989368223643
 50
180.0
  0
INSERT
  5
262
330
1F
100
AcDbEntity
  8
0
 62
     7
100
AcDbBlockReference
  2
_OPEN30
 10
-129.1735735415982
 20
53.32924001292496
 30
0.0
 41
3.000002807615286
 42
2.999989368223643
 50
360.0
  0
LINE
  5
263
330
1F
100
AcDbEntity
  8
0
  6
Continuous
 62
     7
370
    13
100
AcDbLine
 10
22.35842696629214
 20
27.34370123961226
 30
0.0
 11
22.35842696629214
 21
67.34370123961226
 31
0.0
  0
INSERT
  5
264
330
1F
100
AcDbEntity
  8
0
 62
     7
100
AcDbBlockReference
  2
_OPEN30
 10
22.35842696629214
 20
27.34370123961226
 30
0.0
 41
3.000002807615286
 42
2.999989368223643
 50
270.0
  0
INSERT
  5
265
330
1F
100
AcDbEntity
  8
0
 62
     7
100
AcDbBlockReference
  2
_OPEN30
 10
22.35842696629214
 20
67.34370123961226
 30
0.0
 41
3.000002807615286
 42
2.999989368223643
 50
90.0
  0
LINE
  5
266
330
1F
100
AcDbEntity
  8
0
  6
Continuous
 62
     7
370
    13
100
AcDbLine
 10
33.92751702669008
 20
78.92298993471908
 30
0.0
 11
73.9275170266901
 21
78.92298993471908
 31
0.0
  0
INSERT
  5
267
330
1F
100
AcDbEntity
  8
0
 62
     7
100
AcDbBlockReference
  2
_OPEN30
 10
33.92751702669008
 20
78.92298993471908
 30
0.0
 41
3.000002807615286
 42
2.999989368223643
 50
180.0
  0
INSERT
  5
268
330
1F
100
AcDbEntity
  8
0
 62
     7
100
AcDbBlockReference
  2
_OPEN30
 10
73.9275170266901
 20
78.92298993471908
 30
0.0
 41
3.000002807615286
 42
2.999989368223643
 50
360.0
  0
LINE
  5
269
330
1F
100
AcDbEntity
  8
0
  6
Continuous
 62
     7
370
    13
100
AcDbLine
 10
57.92751702669008
 20
20.13980137384042
 30
0.0
 11
66.9275170266901
 21
20.13980137384042
 31
0.0
  0
INSERT
  5
26A
330
1F
100
AcDbEntity
  8
0
 62
     7
100
AcDbBlockReference
  2
_OPEN30
 10
57.92751702669008
 20
20.13980137384042
 30
0.0
 41
3.000002807615286
 42
2.999989368223643
 50
180.0
  0
INSERT
  5
26B
330
1F
100
AcDbEntity
  8
0
 62
     7
100
AcDbBlockReference
  2
_OPEN30
 10
66.9275170266901
 20
20.13980137384042
 30
0.0
 41
3.000002807615286
 42
2.999989368223643
 50
360.0
  0
LINE
  5
26C
330
1F
100
AcDbEntity
  8
0
  6
Continuous
 62
     7
370
    13
100
AcDbLine
 10
66.9275170266901
 20
20.13980137384042
 30
0.0
 11
73.9275170266901
 21
20.13980137384042
 31
0.0
  0
INSERT
  5
26D
330
1F
100
AcDbEntity
  8
0
 62
     7
100
AcDbBlockReference
  2
_OPEN30
 10
66.9275170266901
 20
20.13980137384042
 30
0.0
 41
3.000002807615286
 42
2.999989368223643
 50
180.0
  0
INSERT
  5
26E
330
1F
100
AcDbEntity
  8
0
 62
     7
100
AcDbBlockReference
  2
_OPEN30
 10
73.9275170266901
 20
20.13980137384042
 30
0.0
 41
3.000002807615286
 42
2.999989368223643
 50
360.0
  0
LINE
  5
26F
330
1F
100
AcDbEntity
  8
0
  6
Continuous
 62
     7
370
    13
100
AcDbLine
 10
52.92751702669011
 20
53.56320349437155
 30
0.0
 11
62.92751702669008
 21
53.56320349437155
 31
0.0
  0
INSERT
  5
270
330
1F
100
AcDbEntity
  8
0
 62
     7
100
AcDbBlockReference
  2
_OPEN30
 10
52.92751702669011
 20
53.56320349437155
 30
0.0
 41
3.000002807615286
 42
2.999989368223643
 50
180.0
  0
INSERT
  5
271
330
1F
100
AcDbEntity
  8
0
 62
     7
100
AcDbBlockReference
  2
_OPEN30
 10
62.92751702669008
 20
53.56320349437155
 30
0.0
 41
3.000002807615286
 42
2.999989368223643
 50
360.0
  0
LINE
  5
272
330
1F
100
AcDbEntity
  8
0
  6
Continuous
 62
     7
370
    13
100
AcDbLine
 10
82.93616037576246
 20
27.34370123961226
 30
0.0
 11
82.93616037576246
 21
34.34370123961226
 31
0.0
  0
INSERT
  5
273
330
1F
100
AcDbEntity
  8
0
 62
     7
100
AcDbBlockReference
  2
_OPEN30
 10
82.93616037576246
 20
27.34370123961226
 30
0.0
 41
3.000002807615286
 42
2.999989368223643
 50
270.0
  0
INSERT
  5
274
330
1F
100
AcDbEntity
  8
0
 62
     7
100
AcDbBlockReference
  2
_OPEN30
 10
82.93616037576246
 20
34.34370123961226
 30
0.0
 41
3.000002807615286
 42
2.999989368223643
 50
90.0
  0
LINE
  5
275
330
1F
100
AcDbEntity
  8
0
  6
Continuous
 62
     7
370
    13
100
AcDbLine
 10
82.93616037576246
 20
34.34370123961226
 30
0.0
 11
82.93616037576246
 21
47.34370123961224
 31
0.0
  0
INSERT
  5
276
330
1F
100
AcDbEntity
  8
0
 62
     7
100
AcDbBlockReference
  2
_OPEN30
 10
82.93616037576246
 20
34.34370123961226
 30
0.0
 41
3.000002807615286
 42
2.999989368223643
 50
270.0
  0
INSERT
  5
277
330
1F
100
AcDbEntity
  8
0
 62
     7
100
AcDbBlockReference
  2
_OPEN30
 10
82.93616037576246
 20
47.34370123961224
 30
0.0
 41
3.000002807615286
 42
2.999989368223643
 50
90.0
  0
LINE
  5
278
330
1F
100
AcDbEntity
  8
0
  6
Continuous
 62
     7
370
    13
100
AcDbLine
 10
82.93616037576246
 20
47.34370123961224
 30
0.0
 11
82.93616037576246
 21
60.34370123961224
 31
0.0
  0
INSERT
  5
279
330
1F
100
AcDbEntity
  8
0
 62
     7
100
AcDbBlockReference
  2
_OPEN30
 10
82.93616037576246
 20
47.34370123961224
 30
0.0
 41
3.000002807615286
 42
2.999989368223643
 50
270.0
  0
INSERT
  5
27A
330
1F
100
AcDbEntity
  8
0
 62
     7
100
AcDbBlockReference
  2
_OPEN30
 10
82.93616037576246
 20
60.34370123961224
 30
0.0
 41
3.000002807615286
 42
2.999989368223643
 50
90.0
  0
LINE
  5
27B
330
1F
100
AcDbEntity
  8
0
  6
Continuous
 62
     7
370
    13
100
AcDbLine
 10
82.93616037576246
 20
60.34370123961224
 30
0.0
 11
82.93616037576246
 21
67.34370123961224
 31
0.0
  0
INSERT
  5
27C
330
1F
100
AcDbEntity
  8
0
 62
     7
100
AcDbBlockReference
  2
_OPEN30
 10
82.93616037576246
 20
60.34370123961224
 30
0.0
 41
3.000002807615286
 42
2.999989368223643
 50
270.0
  0
INSERT
  5
27D
330
1F
100
AcDbEntity
  8
0
 62
     7
100
AcDbBlockReference
  2
_OPEN30
 10
82.93616037576246
 20
67.34370123961224
 30
0.0
 41
3.000002807615286
 42
2.999989368223643
 50
90.0
  0
LINE
  5
27E
330
1F
100
AcDbEntity
  8
0
  6
Continuous
 62
     7
370
    13
100
AcDbLine
 10
22.35842696629214
 20
-45.55284828946984
 30
0.0
 11
22.35842696629214
 21
-15.55284828946984
 31
0.0
  0
INSERT
  5
27F
330
1F
100
AcDbEntity
  8
0
 62
     7
100
AcDbBlockReference
  2
_OPEN30
 10
22.35842696629214
 20
-45.55284828946984
 30
0.0
 41
3.000002807615286
 42
2.999989368223643
 50
270.0
  0
INSERT
  5
280
330
1F
100
AcDbEntity
  8
0
 62
     7
100
AcDbBlockReference
  2
_OPEN30
 10
22.35842696629214
 20
-15.55284828946984
 30
0.0
 41
3.000002807615286
 42
2.999989368223643
 50
90.0
  0
LINE
  5
281
330
1F
100
AcDbEntity
  8
0
  6
Continuous
 62
     7
370
    13
100
AcDbLine
 10
33.92751702669008
 20
-4.850945046148464
 30
0.0
 11
43.92751702669008
 21
-4.850945046148464
 31
0.0
  0
INSERT
  5
282
330
1F
100
AcDbEntity
  8
0
 62
     7
100
AcDbBlockReference
  2
_OPEN30
 10
33.92751702669008
 20
-4.850945046148464
 30
0.0
 41
3.000002807615286
 42
2.999989368223643
 50
180.0
  0
INSERT
  5
283
330
1F
100
AcDbEntity
  8
0
 62
     7
100
AcDbBlockReference
  2
_OPEN30
 10
43.92751702669008
 20
-4.850945046148464
 30
0.0
 41
3.000002807615286
 42
2.999989368223643
 50
360.0
  0
LINE
  5
284
330
1F
100
AcDbEntity
  8
0
  6
Continuous
 62
     7
370
    13
100
AcDbLine
 10
33.92751702669008
 20
-59.73370786516855
 30
0.0
 11
73.92751702669008
 21
-59.73370786516855
 31
0.0
  0
INSERT
  5
285
330
1F
100
AcDbEntity
  8
0
 62
     7
100
AcDbBlockReference
  2
_OPEN30
 10
33.92751702669008
 20
-59.73370786516855
 30
0.0
 41
3.000002807615286
 42
2.999989368223643
 50
180.0
  0
INSERT
  5
286
330
1F
100
AcDbEntity
  8
0
 62
     7
100
AcDbBlockReference
  2
_OPEN30
 10
73.92751702669008
 20
-59.73370786516855
 30
0.0
 41
3.000002807615286
 42
2.999989368223643
 50
360.0
  0
LINE
  5
287
330
1F
100
AcDbEntity
  8
0
  6
Continuous
 62
     7
370
    13
100
AcDbLine
 10
123.665242826632
 20
-59.73370786516855
 30
0.0
 11
163.665242826632
 21
-59.73370786516855
 31
0.0
  0
INSERT
  5
288
330
1F
100
AcDbEntity
  8
0
 62
     7
100
AcDbBlockReference
  2
_OPEN30
 10
123.665242826632
 20
-59.73370786516855
 30
0.0
 41
3.000002807615286
 42
2.999989368223643
 50
180.0
  0
INSERT
  5
289
330
1F
100
AcDbEntity
  8
0
 62
     7
100
AcDbBlockReference
  2
_OPEN30
 10
163.665242826632
 20
-59.73370786516855
 30
0.0
 41
3.000002807615286
 42
2.999989368223643
 50
360.0
  0
LINE
  5
28A
330
1F
100
AcDbEntity
  8
0
  6
Continuous
 62
     7
370
    13
100
AcDbLine
 10
112.7932584269663
 20
-45.55284828946982
 30
0.0
 11
112.7932584269663
 21
-15.55284828946983
 31
0.0
  0
INSERT
  5
28B
330
1F
100
AcDbEntity
  8
0
 62
     7
100
AcDbBlockReference
  2
_OPEN30
 10
112.7932584269663
 20
-45.55284828946982
 30
0.0
 41
3.000002807615286
 42
2.999989368223643
 50
270.0
  0
INSERT
  5
28C
330
1F
100
AcDbEntity
  8
0
 62
     7
100
AcDbBlockReference
  2
_OPEN30
 10
112.7932584269663
 20
-15.55284828946983
 30
0.0
 41
3.000002807615286
 42
2.999989368223643
 50
90.0
  0
LINE
  5
28D
330
1F
100
AcDbEntity
  8
0
  6
Continuous
 62
     7
370
    13
100
AcDbLine
 10
-131.6735735415982
 20
19.91578781335015
 30
0.0
 11
-126.6735735415982
 21
19.91578781335015
 31
0.0
  0
INSERT
  5
296
330
1F
100
AcDbEntity
  8
0
 62
     7
100
AcDbBlockReference
  2
_DOT
 10
-131.6735735415982
 20
19.91578781335015
 30
0.0
 41
0.5
 42
0.5
 50
180.0
  0
LINE
  5
297
330
1F
100
AcDbEntity
  8
0
  6
Continuous
 62
     7
370
    13
100
AcDbLine
 10
-129.7811205047676
 20
64.3849836149615
 30
0.0
 11
-120.0321045021066
 21
78.75195456625133
 31
0.0
  0
INSERT
  5
298
330
1F
100
AcDbEntity
  8
0
 62
     7
100
AcDbBlockReference
  2
_OPEN30
 10
-129.7811205047676
 20
64.3849836149615
 30
0.0
 41
3.000002807615286
 42
2.999989368223643
 50
235.8403054543306
  0
LINE
  5
299
330
1F
100
AcDbEntity
  8
0
  6
Continuous
 62
     7
370
    13
100
AcDbLine
 10
68.9275170266901
 20
62.34370123961227
 30
0.0
 11
78.67653302935103
 21
76.7106721909021
 31
0.0
  0
INSERT
  5
29A
330
1F
100
AcDbEntity
  8
0
 62
     7
100
AcDbBlockReference
  2
_OPEN30
 10
68.9275170266901
 20
62.34370123961227
 30
0.0
 41
3.000002807615286
 42
2.999989368223643
 50
235.8403054543306
  0
LINE
  5
29B
330
1F
100
AcDbEntity
  8
0
  6
Continuous
 62
     2
370
    35
100
AcDbLine
 10
-144.6735735415982
 20
-17.55284828946983
 30
0.0
 11
-152.6735735415982
 21
-17.55284828946983
 31
0.0
  0
LINE
  5
29C
330
1F
100
AcDbEntity
  8
0
  6
Continuous
 62
     2
370
    35
100
AcDbLine
 10
-144.6735735415982
 20
-43.55284828946983
 30
0.0
 11
-144.6735735415982
 21
-17.55284828946983
 31
0.0
  0
LINE
  5
29D
330
1F
100
AcDbEntity
  8
0
  6
Continuous
 62
     2
370
    35
100
AcDbLine
 10
-144.6735735415982
 20
-43.55284828946983
 30
0.0
 11
-152.6735735415982
 21
-43.55284828946983
 31
0.0
  0
LINE
  5
29E
330
1F
100
AcDbEntity
  8
0
  6
Continuous
 62
     2
370
    35
100
AcDbLine
 10
-152.6735735415982
 20
-43.55284828946983
 30
0.0
 11
-152.6735735415982
 21
-17.55284828946983
 31
0.0
  0
LINE
  5
29F
330
1F
100
AcDbEntity
  8
0
  6
Continuous
 62
     2
370
    35
100
AcDbLine
 10
-144.6735735415983
 20
27.34370123961224
 30
0.0
 11
-144.6735735415982
 21
67.34370123961224
 31
0.0
  0
LINE
  5
2A0
330
1F
100
AcDbEntity
  8
0
  6
Continuous
 62
     2
370
    35
100
AcDbLine
 10
43.92751702669008
 20
-17.55284828946984
 30
0.0
 11
35.92751702669008
 21
-17.55284828946984
 31
0.0
  0
LINE
  5
2A1
330
1F
100
AcDbEntity
  8
0
  6
Continuous
 62
     2
370
    35
100
AcDbLine
 10
43.92751702669008
 20
-43.55284828946984
 30
0.0
 11
43.92751702669008
 21
-17.55284828946984
 31
0.0
  0
LINE
  5
2A2
330
1F
100
AcDbEntity
  8
0
  6
Continuous
 62
     2
370
    35
100
AcDbLine
 10
35.92751702669008
 20
-43.55284828946984
 30
0.0
 11
35.92751702669008
 21
-17.55284828946984
 31
0.0
  0
LINE
  5
2A3
330
1F
100
AcDbEntity
  8
0
  6
Continuous
 62
     2
370
    35
100
AcDbLine
 10
43.92751702669008
 20
27.34370123961226
 30
0.0
 11
43.92751702669008
 21
67.34370123961224
 31
0.0
  0
LINE
  5
2A4
330
1F
100
AcDbEntity
  8
0
  6
Continuous
 62
     5
370
    25
100
AcDbLine
 10
-152.6735735415982
 20
-35.55284857458893
 30
0.0
 11
-144.6735735415982
 21
-27.55284857458892
 31
0.0
  0
LINE
  5
2A5
330
1F
100
AcDbEntity
  8
0
  6
Continuous
 62
     5
370
    25
100
AcDbLine
 10
-152.6735735415982
 20
-33.43152785010162
 30
0.0
 11
-144.6735735415982
 21
-25.43152785010162
 31
0.0
  0
LINE
  5
2A6
330
1F
100
AcDbEntity
  8
0
  6
Continuous
 62
     5
370
    25
100
AcDbLine
 10
-152.6735735415982
 20
-31.31020712561432
 30
0.0
 11
-144.6735735415982
 21
-23.31020712561432
 31
0.0
  0
LINE
  5
2A7
330
1F
100
AcDbEntity
  8
0
  6
Continuous
 62
     5
370
    25
100
AcDbLine
 10
-152.6735735415982
 20
-29.18888640112701
 30
0.0
 11
-144.6735735415982
 21
-21.18888640112701
 31
0.0
  0
LINE
  5
2A8
330
1F
100
AcDbEntity
  8
0
  6
Continuous
 62
     5
370
    25
100
AcDbLine
 10
-152.6735735415982
 20
-27.06756567663971
 30
0.0
 11
-144.6735735415982
 21
-19.06756567663971
 31
0.0
  0
LINE
  5
2A9
330
1F
100
AcDbEntity
  8
0
  6
Continuous
 62
     5
370
    25
100
AcDbLine
 10
-152.6735735415982
 20
-24.9462449521524
 30
0.0
 11
-145.2801768789156
 21
-17.55284828946981
 31
0.0
  0
LINE
  5
2AA
330
1F
100
AcDbEntity
  8
0
  6
Continuous
 62
     5
370
    25
100
AcDbLine
 10
-152.6735735415982
 20
-22.8249242276651
 30
0.0
 11
-147.4014976034029
 21
-17.55284828946981
 31
0.0
  0
LINE
  5
2AB
330
1F
100
AcDbEntity
  8
0
  6
Continuous
 62
     5
370
    25
100
AcDbLine
 10
-152.6735735415982
 20
-20.70360350317779
 30
0.0
 11
-149.5228183278902
 21
-17.55284828946981
 31
0.0
  0
LINE
  5
2AC
330
1F
100
AcDbEntity
  8
0
  6
Continuous
 62
     5
370
    25
100
AcDbLine
 10
-152.6735735415982
 20
-18.58228277869049
 30
0.0
 11
-151.6441390523775
 21
-17.55284828946981
 31
0.0
  0
LINE
  5
2AD
330
1F
100
AcDbEntity
  8
0
  6
Continuous
 62
     5
370
    25
100
AcDbLine
 10
-152.6735735415982
 20
-37.67416929907623
 30
0.0
 11
-144.6735735415982
 21
-29.67416929907623
 31
0.0
  0
LINE
  5
2AE
330
1F
100
AcDbEntity
  8
0
  6
Continuous
 62
     5
370
    25
100
AcDbLine
 10
-152.6735735415982
 20
-39.79549002356354
 30
0.0
 11
-144.6735735415982
 21
-31.79549002356353
 31
0.0
  0
LINE
  5
2AF
330
1F
100
AcDbEntity
  8
0
  6
Continuous
 62
     5
370
    25
100
AcDbLine
 10
-152.6735735415982
 20
-41.91681074805084
 30
0.0
 11
-144.6735735415982
 21
-33.91681074805084
 31
0.0
  0
LINE
  5
2B0
330
1F
100
AcDbEntity
  8
0
  6
Continuous
 62
     5
370
    25
100
AcDbLine
 10
-152.1882903585299
 20
-43.55284828946981
 30
0.0
 11
-144.6735735415982
 21
-36.03813147253815
 31
0.0
  0
LINE
  5
2B1
330
1F
100
AcDbEntity
  8
0
  6
Continuous
 62
     5
370
    25
100
AcDbLine
 10
-150.0669696340426
 20
-43.55284828946981
 30
0.0
 11
-144.6735735415982
 21
-38.15945219702545
 31
0.0
  0
LINE
  5
2B2
330
1F
100
AcDbEntity
  8
0
  6
Continuous
 62
     5
370
    25
100
AcDbLine
 10
-147.9456489095553
 20
-43.55284828946981
 30
0.0
 11
-144.6735735415982
 21
-40.28077292151276
 31
0.0
  0
LINE
  5
2B3
330
1F
100
AcDbEntity
  8
0
  6
Continuous
 62
     5
370
    25
100
AcDbLine
 10
-145.824328185068
 20
-43.55284828946981
 30
0.0
 11
-144.6735735415982
 21
-42.40209364600006
 31
0.0
  0
LINE
  5
2B4
330
1F
100
AcDbEntity
  8
0
  6
Continuous
 62
     5
370
    25
100
AcDbLine
 10
-64.86368307691284
 20
-43.55284828946981
 30
0.0
 11
-38.86368307691284
 21
-17.55284828946982
 31
0.0
  0
LINE
  5
2B5
330
1F
100
AcDbEntity
  8
0
  6
Continuous
 62
     5
370
    25
100
AcDbLine
 10
-66.98500380140014
 20
-43.55284828946981
 30
0.0
 11
-40.98500380140014
 21
-17.55284828946982
 31
0.0
  0
LINE
  5
2B6
330
1F
100
AcDbEntity
  8
0
  6
Continuous
 62
     5
370
    25
100
AcDbLine
 10
-69.10632452588744
 20
-43.55284828946981
 30
0.0
 11
-43.10632452588744
 21
-17.55284828946982
 31
0.0
  0
LINE
  5
2B7
330
1F
100
AcDbEntity
  8
0
  6
Continuous
 62
     5
370
    25
100
AcDbLine
 10
-71.22764525037475
 20
-43.55284828946981
 30
0.0
 11
-45.22764525037474
 21
-17.55284828946982
 31
0.0
  0
LINE
  5
2B8
330
1F
100
AcDbEntity
  8
0
  6
Continuous
 62
     5
370
    25
100
AcDbLine
 10
-72.86368279320274
 20
-43.06756510781052
 30
0.0
 11
-47.34896597486205
 21
-17.55284828946982
 31
0.0
  0
LINE
  5
2B9
330
1F
100
AcDbEntity
  8
0
  6
Continuous
 62
     5
370
    25
100
AcDbLine
 10
-72.86368279320274
 20
-40.94624438332321
 30
0.0
 11
-49.47028669934935
 21
-17.55284828946982
 31
0.0
  0
LINE
  5
2BA
330
1F
100
AcDbEntity
  8
0
  6
Continuous
 62
     5
370
    25
100
AcDbLine
 10
-72.86368279320274
 20
-38.82492365883591
 30
0.0
 11
-51.59160742383666
 21
-17.55284828946982
 31
0.0
  0
LINE
  5
2BB
330
1F
100
AcDbEntity
  8
0
  6
Continuous
 62
     5
370
    25
100
AcDbLine
 10
-72.86368279320274
 20
-36.7036029343486
 30
0.0
 11
-53.71292814832397
 21
-17.55284828946982
 31
0.0
  0
LINE
  5
2BC
330
1F
100
AcDbEntity
  8
0
  6
Continuous
 62
     5
370
    25
100
AcDbLine
 10
-72.86368279320274
 20
-34.5822822098613
 30
0.0
 11
-55.83424887281127
 21
-17.55284828946982
 31
0.0
  0
LINE
  5
2BD
330
1F
100
AcDbEntity
  8
0
  6
Continuous
 62
     5
370
    25
100
AcDbLine
 10
-72.86368279320274
 20
-32.46096148537399
 30
0.0
 11
-57.95556959729858
 21
-17.55284828946982
 31
0.0
  0
LINE
  5
2BE
330
1F
100
AcDbEntity
  8
0
  6
Continuous
 62
     5
370
    25
100
AcDbLine
 10
-72.86368279320274
 20
-30.33964076088669
 30
0.0
 11
-60.07689032178588
 21
-17.55284828946982
 31
0.0
  0
LINE
  5
2BF
330
1F
100
AcDbEntity
  8
0
  6
Continuous
 62
     5
370
    25
100
AcDbLine
 10
-72.86368279320274
 20
-28.21832003639938
 30
0.0
 11
-62.19821104627319
 21
-17.55284828946982
 31
0.0
  0
LINE
  5
2C0
330
1F
100
AcDbEntity
  8
0
  6
Continuous
 62
     5
370
    25
100
AcDbLine
 10
-72.86368279320274
 20
-26.09699931191208
 30
0.0
 11
-64.31953177076049
 21
-17.55284828946982
 31
0.0
  0
LINE
  5
2C1
330
1F
100
AcDbEntity
  8
0
  6
Continuous
 62
     5
370
    25
100
AcDbLine
 10
-72.86368279320274
 20
-23.97567858742477
 30
0.0
 11
-66.4408524952478
 21
-17.55284828946982
 31
0.0
  0
LINE
  5
2C2
330
1F
100
AcDbEntity
  8
0
  6
Continuous
 62
     5
370
    25
100
AcDbLine
 10
-72.86368279320274
 20
-21.85435786293747
 30
0.0
 11
-68.5621732197351
 21
-17.55284828946982
 31
0.0
  0
LINE
  5
2C3
330
1F
100
AcDbEntity
  8
0
  6
Continuous
 62
     5
370
    25
100
AcDbLine
 10
-72.86368279320274
 20
-19.73303713845016
 30
0.0
 11
-70.6834939442224
 21
-17.55284828946982
 31
0.0
  0
LINE
  5
2C4
330
1F
100
AcDbEntity
  8
0
  6
Continuous
 62
     5
370
    25
100
AcDbLine
 10
-62.74236235242553
 20
-43.55284828946981
 30
0.0
 11
-36.74236235242553
 21
-17.55284828946982
 31
0.0
  0
LINE
  5
2C5
330
1F
100
AcDbEntity
  8
0
  6
Continuous
 62
     5
370
    25
100
AcDbLine
 10
-60.62104162793823
 20
-43.55284828946981
 30
0.0
 11
-34.62104162793821
 21
-17.55284828946982
 31
0.0
  0
LINE
  5
2C6
330
1F
100
AcDbEntity
  8
0
  6
Continuous
 62
     5
370
    25
100
AcDbLine
 10
-58.49972090345092
 20
-43.55284828946981
 30
0.0
 11
-32.86368279320274
 21
-17.91681017922166
 31
0.0
  0
LINE
  5
2C7
330
1F
100
AcDbEntity
  8
0
  6
Continuous
 62
     5
370
    25
100
AcDbLine
 10
-56.37840017896362
 20
-43.55284828946981
 30
0.0
 11
-32.86368279320274
 21
-20.03813090370896
 31
0.0
  0
LINE
  5
2C8
330
1F
100
AcDbEntity
  8
0
  6
Continuous
 62
     5
370
    25
100
AcDbLine
 10
-54.25707945447631
 20
-43.55284828946981
 30
0.0
 11
-32.86368279320274
 21
-22.15945162819627
 31
0.0
  0
LINE
  5
2C9
330
1F
100
AcDbEntity
  8
0
  6
Continuous
 62
     5
370
    25
100
AcDbLine
 10
-52.13575872998901
 20
-43.55284828946981
 30
0.0
 11
-32.86368279320274
 21
-24.28077235268357
 31
0.0
  0
LINE
  5
2CA
330
1F
100
AcDbEntity
  8
0
  6
Continuous
 62
     5
370
    25
100
AcDbLine
 10
-50.0144380055017
 20
-43.55284828946981
 30
0.0
 11
-32.86368279320274
 21
-26.40209307717087
 31
0.0
  0
LINE
  5
2CB
330
1F
100
AcDbEntity
  8
0
  6
Continuous
 62
     5
370
    25
100
AcDbLine
 10
-47.89311728101439
 20
-43.55284828946981
 30
0.0
 11
-32.86368279320274
 21
-28.52341380165818
 31
0.0
  0
LINE
  5
2CC
330
1F
100
AcDbEntity
  8
0
  6
Continuous
 62
     5
370
    25
100
AcDbLine
 10
-45.77179655652709
 20
-43.55284828946981
 30
0.0
 11
-32.86368279320274
 21
-30.64473452614548
 31
0.0
  0
LINE
  5
2CD
330
1F
100
AcDbEntity
  8
0
  6
Continuous
 62
     5
370
    25
100
AcDbLine
 10
-43.65047583203979
 20
-43.55284828946981
 30
0.0
 11
-32.86368279320274
 21
-32.76605525063278
 31
0.0
  0
LINE
  5
2CE
330
1F
100
AcDbEntity
  8
0
  6
Continuous
 62
     5
370
    25
100
AcDbLine
 10
-41.52915510755248
 20
-43.55284828946981
 30
0.0
 11
-32.86368279320274
 21
-34.88737597512009
 31
0.0
  0
LINE
  5
2CF
330
1F
100
AcDbEntity
  8
0
  6
Continuous
 62
     5
370
    25
100
AcDbLine
 10
-39.40783438306518
 20
-43.55284828946981
 30
0.0
 11
-32.86368279320274
 21
-37.00869669960739
 31
0.0
  0
LINE
  5
2D0
330
1F
100
AcDbEntity
  8
0
  6
Continuous
 62
     5
370
    25
100
AcDbLine
 10
-37.28651365857787
 20
-43.55284828946981
 30
0.0
 11
-32.86368279320274
 21
-39.1300174240947
 31
0.0
  0
LINE
  5
2D1
330
1F
100
AcDbEntity
  8
0
  6
Continuous
 62
     5
370
    25
100
AcDbLine
 10
-35.16519293409057
 20
-43.55284828946981
 30
0.0
 11
-32.86368279320274
 21
-41.251338148582
 31
0.0
  0
LINE
  5
2D2
330
1F
100
AcDbEntity
  8
0
  6
Continuous
 62
     5
370
    25
100
AcDbLine
 10
-147.6735735415982
 20
44.84370189833578
 30
0.0
 11
-144.6735735415983
 21
47.84370189833572
 31
0.0
  0
LINE
  5
2D3
330
1F
100
AcDbEntity
  8
0
  6
Continuous
 62
     5
370
    25
100
AcDbLine
 10
-147.6735735415982
 20
46.96502262282308
 30
0.0
 11
-144.6735735415983
 21
49.96502262282303
 31
0.0
  0
LINE
  5
2D4
330
1F
100
AcDbEntity
  8
0
  6
Continuous
 62
     5
370
    25
100
AcDbLine
 10
-147.6735735415982
 20
49.08634334731039
 30
0.0
 11
-144.6735735415983
 21
52.08634334731033
 31
0.0
  0
LINE
  5
2D5
330
1F
100
AcDbEntity
  8
0
  6
Continuous
 62
     5
370
    25
100
AcDbLine
 10
-147.6735735415982
 20
51.20766407179769
 30
0.0
 11
-144.6735735415983
 21
54.20766407179764
 31
0.0
  0
LINE
  5
2D6
330
1F
100
AcDbEntity
  8
0
  6
Continuous
 62
     5
370
    25
100
AcDbLine
 10
-147.6735735415982
 20
53.328984796285
 30
0.0
 11
-144.6735735415983
 21
56.32898479628494
 31
0.0
  0
LINE
  5
2D7
330
1F
100
AcDbEntity
  8
0
  6
Continuous
 62
     5
370
    25
100
AcDbLine
 10
-147.6735735415982
 20
55.4503055207723
 30
0.0
 11
-144.6735735415983
 21
58.45030552077225
 31
0.0
  0
LINE
  5
2D8
330
1F
100
AcDbEntity
  8
0
  6
Continuous
 62
     5
370
    25
100
AcDbLine
 10
-147.6735735415982
 20
57.57162624525961
 30
0.0
 11
-144.6735735415983
 21
60.57162624525955
 31
0.0
  0
LINE
  5
2D9
330
1F
100
AcDbEntity
  8
0
  6
Continuous
 62
     5
370
    25
100
AcDbLine
 10
-147.6735735415982
 20
59.69294696974691
 30
0.0
 11
-144.6735735415983
 21
62.69294696974686
 31
0.0
  0
LINE
  5
2DA
330
1F
100
AcDbEntity
  8
0
  6
Continuous
 62
     5
370
    25
100
AcDbLine
 10
-147.6735735415982
 20
61.81426769423422
 30
0.0
 11
-144.6735735415983
 21
64.81426769423416
 31
0.0
  0
LINE
  5
2DB
330
1F
100
AcDbEntity
  8
0
  6
Continuous
 62
     5
370
    25
100
AcDbLine
 10
-147.6735735415982
 20
63.93558841872152
 30
0.0
 11
-144.6735735415983
 21
66.93558841872147
 31
0.0
  0
LINE
  5
2DC
330
1F
100
AcDbEntity
  8
0
  6
Continuous
 62
     5
370
    25
100
AcDbLine
 10
-147.8836534197315
 20
65.84682926507554
 30
0.0
 11
-146.3867814451948
 21
67.34370123961222
 31
0.0
  0
LINE
  5
2DD
330
1F
100
AcDbEntity
  8
0
  6
Continuous
 62
     5
370
    25
100
AcDbLine
 10
-147.6735735415982
 20
42.72238117384848
 30
0.0
 11
-144.6735735415983
 21
45.72238117384842
 31
0.0
  0
LINE
  5
2DE
330
1F
100
AcDbEntity
  8
0
  6
Continuous
 62
     5
370
    25
100
AcDbLine
 10
-147.6735735415982
 20
40.60106044936117
 30
0.0
 11
-144.6735735415983
 21
43.60106044936111
 31
0.0
  0
LINE
  5
2DF
330
1F
100
AcDbEntity
  8
0
  6
Continuous
 62
     5
370
    25
100
AcDbLine
 10
-147.6735735415982
 20
38.47973972487387
 30
0.0
 11
-144.6735735415983
 21
41.47973972487381
 31
0.0
  0
LINE
  5
2E0
330
1F
100
AcDbEntity
  8
0
  6
Continuous
 62
     5
370
    25
100
AcDbLine
 10
-147.6735735415982
 20
36.35841900038656
 30
0.0
 11
-144.6735735415983
 21
39.3584190003865
 31
0.0
  0
LINE
  5
2E1
330
1F
100
AcDbEntity
  8
0
  6
Continuous
 62
     5
370
    25
100
AcDbLine
 10
-147.6735735415982
 20
34.23709827589926
 30
0.0
 11
-144.6735735415983
 21
37.2370982758992
 31
0.0
  0
LINE
  5
2E2
330
1F
100
AcDbEntity
  8
0
  6
Continuous
 62
     5
370
    25
100
AcDbLine
 10
-147.6735735415982
 20
32.11577755141195
 30
0.0
 11
-144.6735735415983
 21
35.1157775514119
 31
0.0
  0
LINE
  5
2E3
330
1F
100
AcDbEntity
  8
0
  6
Continuous
 62
     5
370
    25
100
AcDbLine
 10
-147.6735735415982
 20
29.99445682692465
 30
0.0
 11
-144.6735735415983
 21
32.99445682692459
 31
0.0
  0
LINE
  5
2E4
330
1F
100
AcDbEntity
  8
0
  6
Continuous
 62
     5
370
    25
100
AcDbLine
 10
-148.2030084044233
 20
27.34370123961224
 30
0.0
 11
-144.6735735415983
 21
30.87313610243729
 31
0.0
  0
LINE
  5
2E5
330
1F
100
AcDbEntity
  8
0
  6
Continuous
 62
     5
370
    25
100
AcDbLine
 10
-146.081687679936
 20
27.34370123961225
 30
0.0
 11
-144.6735735415983
 21
28.75181537794998
 31
0.0
  0
LINE
  5
2E6
330
1F
100
AcDbEntity
  8
0
  6
Continuous
 62
     5
370
    25
100
AcDbLine
 10
40.92751702669008
 20
44.84370189833578
 30
0.0
 11
43.92751702669003
 21
47.84370189833572
 31
0.0
  0
LINE
  5
2E7
330
1F
100
AcDbEntity
  8
0
  6
Continuous
 62
     5
370
    25
100
AcDbLine
 10
40.92751702669008
 20
46.96502262282308
 30
0.0
 11
43.92751702669003
 21
49.96502262282303
 31
0.0
  0
LINE
  5
2E8
330
1F
100
AcDbEntity
  8
0
  6
Continuous
 62
     5
370
    25
100
AcDbLine
 10
40.92751702669008
 20
49.08634334731039
 30
0.0
 11
43.92751702669003
 21
52.08634334731033
 31
0.0
  0
LINE
  5
2E9
330
1F
100
AcDbEntity
  8
0
  6
Continuous
 62
     5
370
    25
100
AcDbLine
 10
40.92751702669008
 20
51.20766407179769
 30
0.0
 11
43.92751702669003
 21
54.20766407179764
 31
0.0
  0
LINE
  5
2EA
330
1F
100
AcDbEntity
  8
0
  6
Continuous
 62
     5
370
    25
100
AcDbLine
 10
40.92751702669008
 20
53.328984796285
 30
0.0
 11
43.92751702669003
 21
56.32898479628494
 31
0.0
  0
LINE
  5
2EB
330
1F
100
AcDbEntity
  8
0
  6
Continuous
 62
     5
370
    25
100
AcDbLine
 10
40.92751702669008
 20
55.4503055207723
 30
0.0
 11
43.92751702669003
 21
58.45030552077225
 31
0.0
  0
LINE
  5
2EC
330
1F
100
AcDbEntity
  8
0
  6
Continuous
 62
     5
370
    25
100
AcDbLine
 10
40.92751702669008
 20
57.57162624525961
 30
0.0
 11
43.92751702669003
 21
60.57162624525955
 31
0.0
  0
LINE
  5
2ED
330
1F
100
AcDbEntity
  8
0
  6
Continuous
 62
     5
370
    25
100
AcDbLine
 10
40.92751702669008
 20
59.69294696974691
 30
0.0
 11
43.92751702669003
 21
62.69294696974686
 31
0.0
  0
LINE
  5
2EE
330
1F
100
AcDbEntity
  8
0
  6
Continuous
 62
     5
370
    25
100
AcDbLine
 10
40.92751702669008
 20
61.81426769423422
 30
0.0
 11
43.92751702669003
 21
64.81426769423416
 31
0.0
  0
LINE
  5
2EF
330
1F
100
AcDbEntity
  8
0
  6
Continuous
 62
     5
370
    25
100
AcDbLine
 10
40.92751702669008
 20
63.93558841872152
 30
0.0
 11
43.92751702669003
 21
66.93558841872147
 31
0.0
  0
LINE
  5
2F0
330
1F
100
AcDbEntity
  8
0
  6
Continuous
 62
     5
370
    25
100
AcDbLine
 10
40.7174371485568
 20
65.84682926507554
 30
0.0
 11
42.21430912309347
 21
67.34370123961222
 31
0.0
  0
LINE
  5
2F1
330
1F
100
AcDbEntity
  8
0
  6
Continuous
 62
     5
370
    25
100
AcDbLine
 10
40.92751702669008
 20
42.72238117384848
 30
0.0
 11
43.92751702669003
 21
45.72238117384842
 31
0.0
  0
LINE
  5
2F2
330
1F
100
AcDbEntity
  8
0
  6
Continuous
 62
     5
370
    25
100
AcDbLine
 10
40.92751702669008
 20
40.60106044936117
 30
0.0
 11
43.92751702669003
 21
43.60106044936111
 31
0.0
  0
LINE
  5
2F3
330
1F
100
AcDbEntity
  8
0
  6
Continuous
 62
     5
370
    25
100
AcDbLine
 10
40.92751702669008
 20
38.47973972487387
 30
0.0
 11
43.92751702669003
 21
41.47973972487381
 31
0.0
  0
LINE
  5
2F4
330
1F
100
AcDbEntity
  8
0
  6
Continuous
 62
     5
370
    25
100
AcDbLine
 10
40.92751702669008
 20
36.35841900038656
 30
0.0
 11
43.92751702669003
 21
39.3584190003865
 31
0.0
  0
LINE
  5
2F5
330
1F
100
AcDbEntity
  8
0
  6
Continuous
 62
     5
370
    25
100
AcDbLine
 10
40.92751702669008
 20
34.23709827589926
 30
0.0
 11
43.92751702669003
 21
37.2370982758992
 31
0.0
  0
LINE
  5
2F6
330
1F
100
AcDbEntity
  8
0
  6
Continuous
 62
     5
370
    25
100
AcDbLine
 10
40.92751702669008
 20
32.11577755141195
 30
0.0
 11
43.92751702669003
 21
35.1157775514119
 31
0.0
  0
LINE
  5
2F7
330
1F
100
AcDbEntity
  8
0
  6
Continuous
 62
     5
370
    25
100
AcDbLine
 10
40.92751702669008
 20
29.99445682692465
 30
0.0
 11
43.92751702669003
 21
32.99445682692459
 31
0.0
  0
LINE
  5
2F8
330
1F
100
AcDbEntity
  8
0
  6
Continuous
 62
     5
370
    25
100
AcDbLine
 10
40.39808216386498
 20
27.34370123961224
 30
0.0
 11
43.92751702669003
 21
30.87313610243729
 31
0.0
  0
LINE
  5
2F9
330
1F
100
AcDbEntity
  8
0
  6
Continuous
 62
     5
370
    25
100
AcDbLine
 10
42.51940288835229
 20
27.34370123961225
 30
0.0
 11
43.92751702669003
 21
28.75181537794998
 31
0.0
  0
LINE
  5
2FA
330
1F
100
AcDbEntity
  8
0
  6
Continuous
 62
     5
370
    25
100
AcDbLine
 10
35.92751702669008
 20
-35.55284857458894
 30
0.0
 11
43.92751702669008
 21
-27.55284857458894
 31
0.0
  0
LINE
  5
2FB
330
1F
100
AcDbEntity
  8
0
  6
Continuous
 62
     5
370
    25
100
AcDbLine
 10
35.92751702669008
 20
-33.43152785010163
 30
0.0
 11
43.92751702669008
 21
-25.43152785010163
 31
0.0
  0
LINE
  5
2FC
330
1F
100
AcDbEntity
  8
0
  6
Continuous
 62
     5
370
    25
100
AcDbLine
 10
35.92751702669008
 20
-31.31020712561433
 30
0.0
 11
43.92751702669008
 21
-23.31020712561433
 31
0.0
  0
LINE
  5
2FD
330
1F
100
AcDbEntity
  8
0
  6
Continuous
 62
     5
370
    25
100
AcDbLine
 10
35.92751702669008
 20
-29.18888640112702
 30
0.0
 11
43.92751702669008
 21
-21.18888640112702
 31
0.0
  0
LINE
  5
2FE
330
1F
100
AcDbEntity
  8
0
  6
Continuous
 62
     5
370
    25
100
AcDbLine
 10
35.92751702669008
 20
-27.06756567663972
 30
0.0
 11
43.92751702669008
 21
-19.06756567663972
 31
0.0
  0
LINE
  5
2FF
330
1F
100
AcDbEntity
  8
0
  6
Continuous
 62
     5
370
    25
100
AcDbLine
 10
35.92751702669008
 20
-24.94624495215241
 30
0.0
 11
43.32091368937267
 21
-17.55284828946982
 31
0.0
  0
LINE
  5
300
330
1F
100
AcDbEntity
  8
0
  6
Continuous
 62
     5
370
    25
100
AcDbLine
 10
35.92751702669008
 20
-22.82492422766511
 30
0.0
 11
41.19959296488537
 21
-17.55284828946982
 31
0.0
  0
LINE
  5
301
330
1F
100
AcDbEntity
  8
0
  6
Continuous
 62
     5
370
    25
100
AcDbLine
 10
35.92751702669008
 20
-20.7036035031778
 30
0.0
 11
39.07827224039806
 21
-17.55284828946982
 31
0.0
  0
LINE
  5
302
330
1F
100
AcDbEntity
  8
0
  6
Continuous
 62
     5
370
    25
100
AcDbLine
 10
35.92751702669008
 20
-18.5822827786905
 30
0.0
 11
36.95695151591076
 21
-17.55284828946982
 31
0.0
  0
LINE
  5
303
330
1F
100
AcDbEntity
  8
0
  6
Continuous
 62
     5
370
    25
100
AcDbLine
 10
35.92751702669008
 20
-37.67416929907624
 30
0.0
 11
43.92751702669008
 21
-29.67416929907624
 31
0.0
  0
LINE
  5
304
330
1F
100
AcDbEntity
  8
0
  6
Continuous
 62
     5
370
    25
100
AcDbLine
 10
35.92751702669008
 20
-39.79549002356354
 30
0.0
 11
43.92751702669008
 21
-31.79549002356354
 31
0.0
  0
LINE
  5
305
330
1F
100
AcDbEntity
  8
0
  6
Continuous
 62
     5
370
    25
100
AcDbLine
 10
35.92751702669008
 20
-41.91681074805085
 30
0.0
 11
43.92751702669008
 21
-33.91681074805085
 31
0.0
  0
LINE
  5
306
330
1F
100
AcDbEntity
  8
0
  6
Continuous
 62
     5
370
    25
100
AcDbLine
 10
36.41280020975842
 20
-43.55284828946982
 30
0.0
 11
43.92751702669008
 21
-36.03813147253815
 31
0.0
  0
LINE
  5
307
330
1F
100
AcDbEntity
  8
0
  6
Continuous
 62
     5
370
    25
100
AcDbLine
 10
38.53412093424572
 20
-43.55284828946982
 30
0.0
 11
43.92751702669008
 21
-38.15945219702546
 31
0.0
  0
LINE
  5
308
330
1F
100
AcDbEntity
  8
0
  6
Continuous
 62
     5
370
    25
100
AcDbLine
 10
40.65544165873303
 20
-43.55284828946982
 30
0.0
 11
43.92751702669008
 21
-40.28077292151276
 31
0.0
  0
LINE
  5
309
330
1F
100
AcDbEntity
  8
0
  6
Continuous
 62
     5
370
    25
100
AcDbLine
 10
42.77676238322033
 20
-43.55284828946982
 30
0.0
 11
43.92751702669008
 21
-42.40209364600007
 31
0.0
  0
LINE
  5
30A
330
1F
100
AcDbEntity
  8
0
  6
Continuous
 62
     5
370
    25
100
AcDbLine
 10
131.6652425429219
 20
-43.55284828946982
 30
0.0
 11
157.6652425429218
 21
-17.55284828946983
 31
0.0
  0
LINE
  5
30B
330
1F
100
AcDbEntity
  8
0
  6
Continuous
 62
     5
370
    25
100
AcDbLine
 10
129.5439218184346
 20
-43.55284828946982
 30
0.0
 11
155.5439218184346
 21
-17.55284828946983
 31
0.0
  0
LINE
  5
30C
330
1F
100
AcDbEntity
  8
0
  6
Continuous
 62
     5
370
    25
100
AcDbLine
 10
127.4226010939473
 20
-43.55284828946982
 30
0.0
 11
153.4226010939473
 21
-17.55284828946983
 31
0.0
  0
LINE
  5
30D
330
1F
100
AcDbEntity
  8
0
  6
Continuous
 62
     5
370
    25
100
AcDbLine
 10
125.30128036946
 20
-43.55284828946982
 30
0.0
 11
151.30128036946
 21
-17.55284828946983
 31
0.0
  0
LINE
  5
30E
330
1F
100
AcDbEntity
  8
0
  6
Continuous
 62
     5
370
    25
100
AcDbLine
 10
123.665242826632
 20
-43.06756510781052
 30
0.0
 11
149.1799596449727
 21
-17.55284828946983
 31
0.0
  0
LINE
  5
30F
330
1F
100
AcDbEntity
  8
0
  6
Continuous
 62
     5
370
    25
100
AcDbLine
 10
123.665242826632
 20
-40.94624438332322
 30
0.0
 11
147.0586389204854
 21
-17.55284828946983
 31
0.0
  0
LINE
  5
310
330
1F
100
AcDbEntity
  8
0
  6
Continuous
 62
     5
370
    25
100
AcDbLine
 10
123.665242826632
 20
-38.82492365883591
 30
0.0
 11
144.937318195998
 21
-17.55284828946983
 31
0.0
  0
LINE
  5
311
330
1F
100
AcDbEntity
  8
0
  6
Continuous
 62
     5
370
    25
100
AcDbLine
 10
123.665242826632
 20
-36.70360293434861
 30
0.0
 11
142.8159974715107
 21
-17.55284828946983
 31
0.0
  0
LINE
  5
312
330
1F
100
AcDbEntity
  8
0
  6
Continuous
 62
     5
370
    25
100
AcDbLine
 10
123.665242826632
 20
-34.5822822098613
 30
0.0
 11
140.6946767470234
 21
-17.55284828946983
 31
0.0
  0
LINE
  5
313
330
1F
100
AcDbEntity
  8
0
  6
Continuous
 62
     5
370
    25
100
AcDbLine
 10
123.665242826632
 20
-32.460961485374
 30
0.0
 11
138.5733560225361
 21
-17.55284828946983
 31
0.0
  0
LINE
  5
314
330
1F
100
AcDbEntity
  8
0
  6
Continuous
 62
     5
370
    25
100
AcDbLine
 10
123.665242826632
 20
-30.3396407608867
 30
0.0
 11
136.4520352980488
 21
-17.55284828946983
 31
0.0
  0
LINE
  5
315
330
1F
100
AcDbEntity
  8
0
  6
Continuous
 62
     5
370
    25
100
AcDbLine
 10
123.665242826632
 20
-28.21832003639939
 30
0.0
 11
134.3307145735615
 21
-17.55284828946983
 31
0.0
  0
LINE
  5
316
330
1F
100
AcDbEntity
  8
0
  6
Continuous
 62
     5
370
    25
100
AcDbLine
 10
123.665242826632
 20
-26.09699931191208
 30
0.0
 11
132.2093938490742
 21
-17.55284828946983
 31
0.0
  0
LINE
  5
317
330
1F
100
AcDbEntity
  8
0
  6
Continuous
 62
     5
370
    25
100
AcDbLine
 10
123.665242826632
 20
-23.97567858742478
 30
0.0
 11
130.0880731245869
 21
-17.55284828946983
 31
0.0
  0
LINE
  5
318
330
1F
100
AcDbEntity
  8
0
  6
Continuous
 62
     5
370
    25
100
AcDbLine
 10
123.665242826632
 20
-21.85435786293747
 30
0.0
 11
127.9667524000996
 21
-17.55284828946983
 31
0.0
  0
LINE
  5
319
330
1F
100
AcDbEntity
  8
0
  6
Continuous
 62
     5
370
    25
100
AcDbLine
 10
123.665242826632
 20
-19.73303713845017
 30
0.0
 11
125.8454316756123
 21
-17.55284828946983
 31
0.0
  0
LINE
  5
31A
330
1F
100
AcDbEntity
  8
0
  6
Continuous
 62
     5
370
    25
100
AcDbLine
 10
133.7865632674092
 20
-43.55284828946982
 30
0.0
 11
159.7865632674092
 21
-17.55284828946983
 31
0.0
  0
LINE
  5
31B
330
1F
100
AcDbEntity
  8
0
  6
Continuous
 62
     5
370
    25
100
AcDbLine
 10
135.9078839918965
 20
-43.55284828946982
 30
0.0
 11
161.9078839918965
 21
-17.55284828946983
 31
0.0
  0
LINE
  5
31C
330
1F
100
AcDbEntity
  8
0
  6
Continuous
 62
     5
370
    25
100
AcDbLine
 10
138.0292047163838
 20
-43.55284828946982
 30
0.0
 11
163.665242826632
 21
-17.91681017922166
 31
0.0
  0
LINE
  5
31D
330
1F
100
AcDbEntity
  8
0
  6
Continuous
 62
     5
370
    25
100
AcDbLine
 10
140.1505254408711
 20
-43.55284828946982
 30
0.0
 11
163.665242826632
 21
-20.03813090370897
 31
0.0
  0
LINE
  5
31E
330
1F
100
AcDbEntity
  8
0
  6
Continuous
 62
     5
370
    25
100
AcDbLine
 10
142.2718461653584
 20
-43.55284828946982
 30
0.0
 11
163.665242826632
 21
-22.15945162819627
 31
0.0
  0
LINE
  5
31F
330
1F
100
AcDbEntity
  8
0
  6
Continuous
 62
     5
370
    25
100
AcDbLine
 10
144.3931668898457
 20
-43.55284828946982
 30
0.0
 11
163.665242826632
 21
-24.28077235268358
 31
0.0
  0
LINE
  5
320
330
1F
100
AcDbEntity
  8
0
  6
Continuous
 62
     5
370
    25
100
AcDbLine
 10
146.514487614333
 20
-43.55284828946982
 30
0.0
 11
163.665242826632
 21
-26.40209307717087
 31
0.0
  0
LINE
  5
321
330
1F
100
AcDbEntity
  8
0
  6
Continuous
 62
     5
370
    25
100
AcDbLine
 10
148.6358083388203
 20
-43.55284828946982
 30
0.0
 11
163.665242826632
 21
-28.52341380165818
 31
0.0
  0
LINE
  5
322
330
1F
100
AcDbEntity
  8
0
  6
Continuous
 62
     5
370
    25
100
AcDbLine
 10
150.7571290633076
 20
-43.55284828946982
 30
0.0
 11
163.665242826632
 21
-30.64473452614548
 31
0.0
  0
LINE
  5
323
330
1F
100
AcDbEntity
  8
0
  6
Continuous
 62
     5
370
    25
100
AcDbLine
 10
152.8784497877949
 20
-43.55284828946982
 30
0.0
 11
163.665242826632
 21
-32.76605525063279
 31
0.0
  0
LINE
  5
324
330
1F
100
AcDbEntity
  8
0
  6
Continuous
 62
     5
370
    25
100
AcDbLine
 10
154.9997705122822
 20
-43.55284828946982
 30
0.0
 11
163.665242826632
 21
-34.88737597512009
 31
0.0
  0
LINE
  5
325
330
1F
100
AcDbEntity
  8
0
  6
Continuous
 62
     5
370
    25
100
AcDbLine
 10
157.1210912367695
 20
-43.55284828946982
 30
0.0
 11
163.665242826632
 21
-37.0086966996074
 31
0.0
  0
LINE
  5
326
330
1F
100
AcDbEntity
  8
0
  6
Continuous
 62
     5
370
    25
100
AcDbLine
 10
159.2424119612568
 20
-43.55284828946982
 30
0.0
 11
163.665242826632
 21
-39.1300174240947
 31
0.0
  0
LINE
  5
327
330
1F
100
AcDbEntity
  8
0
  6
Continuous
 62
     5
370
    25
100
AcDbLine
 10
161.3637326857441
 20
-43.55284828946982
 30
0.0
 11
163.665242826632
 21
-41.25133814858201
 31
0.0
  0
TEXT
  5
328
330
1F
100
AcDbEntity
  8
0
 62
     7
100
AcDbText
 10
-122.3750151976544
 20
-40.45284828946982
 30
0.0
 40
3.499999999999999
  1
2
 50
90.0
 41
0.7692307692307694
  7
dcStyle0
 72
     5
 11
-122.3750151976544
 21
-38.70284828946982
 31
0.0
100
AcDbText
  0
TEXT
  5
329
330
1F
100
AcDbEntity
  8
0
 62
     7
100
AcDbText
 10
-166.185393258427
 20
-32.30284828946982
 30
0.0
 40
3.499999999999999
  1
30
 50
90.0
 41
0.7692307692307686
  7
dcStyle0
 72
     5
 11
-166.185393258427
 21
-28.80284828946983
 31
0.0
100
AcDbText
  0
TEXT
  5
32A
330
1F
100
AcDbEntity
  8
0
 62
     7
100
AcDbText
 10
-142.4235735415982
 20
-58.54690818821226
 30
0.0
 40
3.499999999999999
  1
28
 41
0.7692307692307694
  7
dcStyle0
 72
     5
 11
-138.9235735415982
 21
-58.54690818821226
 31
0.0
100
AcDbText
  0
TEXT
  5
32B
330
1F
100
AcDbEntity
  8
0
 62
     7
100
AcDbText
 10
-151.4235735415982
 20
-3.664145369192173
 30
0.0
 40
3.499999999999999
  1
10
 41
0.7692307692307694
  7
dcStyle0
 72
     5
 11
-147.9235735415982
 21
-3.664145369192173
 31
0.0
100
AcDbText
  0
TEXT
  5
32C
330
1F
100
AcDbEntity
  8
0
 62
     7
100
AcDbText
 10
-54.61368279320275
 20
-58.54690818821226
 30
0.0
 40
3.499999999999999
  1
40
 41
0.7692307692307694
  7
dcStyle0
 72
     5
 11
-51.11368279320275
 21
-58.54690818821226
 31
0.0
100
AcDbText
  0
TEXT
  5
32D
330
1F
100
AcDbEntity
  8
0
 62
     7
100
AcDbText
 10
-85.42808988764045
 20
-32.30284828946982
 30
0.0
 40
3.499999999999999
  1
30
 50
90.0
 41
0.7692307692307686
  7
dcStyle0
 72
     5
 11
-85.42808988764045
 21
-28.80284828946983
 31
0.0
100
AcDbText
  0
TEXT
  5
32E
330
1F
100
AcDbEntity
  8
0
 62
     7
100
AcDbText
 10
-166.185393258427
 20
45.59370123961224
 30
0.0
 40
3.499999999999999
  1
40
 50
90.0
 41
0.7692307692307694
  7
dcStyle0
 72
     5
 11
-166.185393258427
 21
49.09370123961224
 31
0.0
100
AcDbText
  0
TEXT
  5
32F
330
1F
100
AcDbEntity
  8
0
 62
     7
100
AcDbText
 10
-120.6937841772135
 20
46.46870123961224
 30
0.0
 40
3.499999999999999
  1
5
 50
90.0
 41
0.7692307692307694
  7
dcStyle0
 72
     5
 11
-120.6937841772135
 21
48.21870123961224
 31
0.0
100
AcDbText
  0
TEXT
  5
330
330
1F
100
AcDbEntity
  8
0
 62
     7
100
AcDbText
 10
-110.1224719101124
 20
22.49370123961224
 30
0.0
 40
3.499999999999999
  1
5
 50
90.0
 41
0.7692307692307694
  7
dcStyle0
 72
     5
 11
-110.1224719101124
 21
24.24370123961224
 31
0.0
100
AcDbText
  0
TEXT
  5
331
330
1F
100
AcDbEntity
  8
0
 62
     7
100
AcDbText
 10
-110.1224719101124
 20
38.09370123961224
 30
0.0
 40
3.499999999999999
  1
15
 50
90.0
 41
0.7692307692307694
  7
dcStyle0
 72
     5
 11
-110.1224719101124
 21
41.59370123961224
 31
0.0
100
AcDbText
  0
TEXT
  5
332
330
1F
100
AcDbEntity
  8
0
 62
     7
100
AcDbText
 10
-110.1224719101124
 20
53.09370123961224
 30
0.0
 40
3.499999999999999
  1
15
 50
90.0
 41
0.7692307692307694
  7
dcStyle0
 72
     5
 11
-110.1224719101124
 21
56.59370123961224
 31
0.0
100
AcDbText
  0
TEXT
  5
333
330
1F
100
AcDbEntity
  8
0
 62
     7
100
AcDbText
 10
-110.1224719101124
 20
70.44370123961224
 30
0.0
 40
3.499999999999999
  1
5
 50
90.0
 41
0.7692307692307694
  7
dcStyle0
 72
     5
 11
-110.1224719101124
 21
72.19370123961224
 31
0.0
100
AcDbText
  0
TEXT
  5
334
330
1F
100
AcDbEntity
  8
0
 62
     7
100
AcDbText
 10
-142.4235735415982
 20
79.92298993471907
 30
0.0
 40
3.499999999999999
  1
28
 41
0.7692307692307694
  7
dcStyle0
 72
     5
 11
-138.9235735415982
 21
79.92298993471907
 31
0.0
100
AcDbText
  0
TEXT
  5
335
330
1F
100
AcDbEntity
  8
0
 62
     7
100
AcDbText
 10
-135.9235735415982
 20
54.32924001292496
 30
0.0
 40
3.499999999999999
  1
10
 41
0.7692307692307694
  7
dcStyle0
 72
     5
 11
-132.4235735415982
 21
54.32924001292496
 31
0.0
100
AcDbText
  0
TEXT
  5
336
330
1F
100
AcDbEntity
  8
0
 62
     7
100
AcDbText
 10
-142.5235735415982
 20
20.91578781335015
 30
0.0
 40
3.499999999999999
  1
2.5
 41
0.7692307692307694
  7
dcStyle0
 72
     5
 11
-137.2735735415982
 21
20.91578781335015
 31
0.0
100
AcDbText
  0
TEXT
  5
337
330
1F
100
AcDbEntity
  8
0
 62
     7
100
AcDbText
 10
-123.5735735415982
 20
20.91578781335015
 30
0.0
 40
3.499999999999999
  1
5
 41
0.7692307692307694
  7
dcStyle0
 72
     5
 11
-121.8235735415982
 21
20.91578781335015
 31
0.0
100
AcDbText
  0
TEXT
  5
338
330
1F
100
AcDbEntity
  8
0
 62
     7
100
AcDbText
 10
21.35842696629214
 20
45.59370123961226
 30
0.0
 40
3.499999999999999
  1
40
 50
90.0
 41
0.7692307692307694
  7
dcStyle0
 72
     5
 11
21.35842696629214
 21
49.09370123961226
 31
0.0
100
AcDbText
  0
TEXT
  5
339
330
1F
100
AcDbEntity
  8
0
 62
     7
100
AcDbText
 10
52.17751702669008
 20
79.92298993471908
 30
0.0
 40
3.499999999999999
  1
40
 41
0.7692307692307694
  7
dcStyle0
 72
     5
 11
55.67751702669008
 21
79.92298993471908
 31
0.0
100
AcDbText
  0
TEXT
  5
33A
330
1F
100
AcDbEntity
  8
0
 62
     7
100
AcDbText
 10
61.55251702669008
 20
21.13980137384042
 30
0.0
 40
3.499999999999999
  1
9
 41
0.7692307692307694
  7
dcStyle0
 72
     5
 11
63.30251702669008
 21
21.13980137384042
 31
0.0
100
AcDbText
  0
TEXT
  5
33B
330
1F
100
AcDbEntity
  8
0
 62
     7
100
AcDbText
 10
69.5525170266901
 20
21.13980137384042
 30
0.0
 40
3.499999999999999
  1
7
 41
0.7692307692307694
  7
dcStyle0
 72
     5
 11
71.3025170266901
 21
21.13980137384042
 31
0.0
100
AcDbText
  0
TEXT
  5
33C
330
1F
100
AcDbEntity
  8
0
 62
     7
100
AcDbText
 10
56.1775170266901
 20
54.56320349437155
 30
0.0
 40
3.499999999999999
  1
10
 41
0.7692307692307694
  7
dcStyle0
 72
     5
 11
59.6775170266901
 21
54.56320349437155
 31
0.0
100
AcDbText
  0
TEXT
  5
33D
330
1F
100
AcDbEntity
  8
0
 62
     7
100
AcDbText
 10
68.40106364926638
 20
46.46870123961224
 30
0.0
 40
3.499999999999999
  1
5
 50
90.0
 41
0.7692307692307694
  7
dcStyle0
 72
     5
 11
68.40106364926638
 21
48.21870123961224
 31
0.0
100
AcDbText
  0
TEXT
  5
33E
330
1F
100
AcDbEntity
  8
0
 62
     7
100
AcDbText
 10
81.93616037576246
 20
29.96870123961226
 30
0.0
 40
3.499999999999999
  1
7
 50
90.0
 41
0.7692307692307694
  7
dcStyle0
 72
     5
 11
81.93616037576246
 21
31.71870123961226
 31
0.0
100
AcDbText
  0
TEXT
  5
33F
330
1F
100
AcDbEntity
  8
0
 62
     7
100
AcDbText
 10
81.93616037576246
 20
39.09370123961224
 30
0.0
 40
3.499999999999999
  1
13
 50
90.0
 41
0.7692307692307694
  7
dcStyle0
 72
     5
 11
81.93616037576246
 21
42.59370123961224
 31
0.0
100
AcDbText
  0
TEXT
  5
340
330
1F
100
AcDbEntity
  8
0
 62
     7
100
AcDbText
 10
81.93616037576246
 20
52.09370123961224
 30
0.0
 40
3.499999999999999
  1
13
 50
90.0
 41
0.7692307692307694
  7
dcStyle0
 72
     5
 11
81.93616037576246
 21
55.59370123961224
 31
0.0
100
AcDbText
  0
TEXT
  5
341
330
1F
100
AcDbEntity
  8
0
 62
     7
100
AcDbText
 10
81.93616037576246
 20
62.96870123961224
 30
0.0
 40
3.499999999999999
  1
7
 50
90.0
 41
0.7692307692307694
  7
dcStyle0
 72
     5
 11
81.93616037576246
 21
64.71870123961224
 31
0.0
100
AcDbText
  0
TEXT
  5
342
330
1F
100
AcDbEntity
  8
0
 62
     7
100
AcDbText
 10
21.35842696629214
 20
-32.30284828946984
 30
0.0
 40
3.499999999999999
  1
30
 50
90.0
 41
0.7692307692307694
  7
dcStyle0
 72
     5
 11
21.35842696629214
 21
-28.80284828946984
 31
0.0
100
AcDbText
  0
TEXT
  5
343
330
1F
100
AcDbEntity
  8
0
 62
     7
100
AcDbText
 10
37.17751702669008
 20
-3.850945046148464
 30
0.0
 40
3.499999999999999
  1
10
 41
0.7692307692307694
  7
dcStyle0
 72
     5
 11
40.67751702669008
 21
-3.850945046148464
 31
0.0
100
AcDbText
  0
TEXT
  5
344
330
1F
100
AcDbEntity
  8
0
 62
     7
100
AcDbText
 10
52.17751702669008
 20
-58.73370786516855
 30
0.0
 40
3.499999999999999
  1
40
 41
0.7692307692307694
  7
dcStyle0
 72
     5
 11
55.67751702669008
 21
-58.73370786516855
 31
0.0
100
AcDbText
  0
TEXT
  5
345
330
1F
100
AcDbEntity
  8
0
 62
     7
100
AcDbText
 10
78.22607537063394
 20
-40.45284828946983
 30
0.0
 40
3.499999999999999
  1
2
 50
90.0
 41
0.7692307692307694
  7
dcStyle0
 72
     5
 11
78.22607537063394
 21
-38.70284828946983
 31
0.0
100
AcDbText
  0
TEXT
  5
346
330
1F
100
AcDbEntity
  8
0
 62
     7
100
AcDbText
 10
141.915242826632
 20
-58.73370786516855
 30
0.0
 40
3.499999999999999
  1
40
 41
0.7692307692307694
  7
dcStyle0
 72
     5
 11
145.415242826632
 21
-58.73370786516855
 31
0.0
100
AcDbText
  0
TEXT
  5
347
330
1F
100
AcDbEntity
  8
0
 62
     7
100
AcDbText
 10
111.7932584269663
 20
-32.30284828946982
 30
0.0
 40
3.499999999999999
  1
30
 50
90.0
 41
0.7692307692307686
  7
dcStyle0
 72
     5
 11
111.7932584269663
 21
-28.80284828946983
 31
0.0
100
AcDbText
  0
TEXT
  5
348
330
1F
100
AcDbEntity
  8
0
 62
     7
100
AcDbText
 10
-120.0321045021066
 20
79.75195456625133
 30
0.0
 40
3.499999999999999
  1
2-φ5
 41
0.9230769230769234
  7
dcStyle0
 72
     5
 11
-109.5321045021066
 21
79.75195456625133
 31
0.0
100
AcDbText
  0
TEXT
  5
349
330
1F
100
AcDbEntity
  8
0
 62
     7
100
AcDbText
 10
78.67653302935103
 20
77.7106721909021
 30
0.0
 40
3.499999999999999
  1
2-φ5
 41
0.9230769230769234
  7
dcStyle0
 72
     5
 11
89.17653302935103
 21
77.7106721909021
 31
0.0
100
AcDbText
  0
INSERT
  5
34A
330
1F
100
AcDbEntity
  8
ZUWAKU
  6
Continuous
100
AcDbBlockReference
  2
DC_GROUP_627-30 笠木戸当り_1
 10
0.0
 20
0.0
 30
0.0
  0
TEXT
  5
34B
330
1F
100
AcDbEntity
  8
ZUWAKU
 62
     7
100
AcDbText
 10
176.3416296766011
 20
-137.1082752060875
 30
0.0
 40
3.5
  1
201806
 41
0.7692307692307692
  7
dcStyle0
 72
     5
 11
186.8416296766011
 21
-137.1082752060875
 31
0.0
100
AcDbText
  0
TEXT
  5
34D
330
1F
100
AcDbEntity
  8
ZUWAKU
 62
     7
100
AcDbText
 10
90.08059899787432
 20
126.8917406060535
 30
0.0
 40
3.0
  1
品　　番
 41
0.6320622435020516
  7
dcStyle1
 72
     5
 11
101.1805989978743
 21
126.8917406060535
 31
0.0
100
AcDbText
  0
TEXT
  5
34E
330
1F
100
AcDbEntity
  8
ZUWAKU
 62
     7
100
AcDbText
 10
90.08059899787432
 20
121.8917406060535
 30
0.0
 40
3.0
  1
品　　名
 41
0.6320622435020516
  7
dcStyle1
 72
     5
 11
101.1805989978743
 21
121.8917406060535
 31
0.0
100
AcDbText
  0
TEXT
  5
34F
330
1F
100
AcDbEntity
  8
ZUWAKU
 62
     7
100
AcDbText
 10
90.0805989978743
 20
116.8917406060535
 30
0.0
 40
3.0
  1
材　　質
 41
0.6320622435020525
  7
dcStyle1
 72
     5
 11
101.1805989978743
 21
116.8917406060535
 31
0.0
100
AcDbText
  0
TEXT
  5
350
330
1F
100
AcDbEntity
  8
ZUWAKU
 62
     7
100
AcDbText
 10
90.08059899787429
 20
111.8917406060535
 30
0.0
 40
3.0
  1
仕　　上
 41
0.6320622435020516
  7
dcStyle1
 72
     5
 11
101.1805989978743
 21
111.8917406060535
 31
0.0
100
AcDbText
  0
TEXT
  5
351
330
1F
100
AcDbEntity
  8
ZUWAKU
 62
     7
100
AcDbText
 10
106.4850421348313
 20
116.8917406060535
 30
0.0
 40
3.0
  1
本体：SUS304、ゴム：クロロプレンゴム(黒)
 41
0.677616279069767
  7
dcStyle1
 72
     5
 11
165.9850421348313
 21
116.8917406060535
 31
0.0
100
AcDbText
  0
TEXT
  5
352
330
1F
100
AcDbEntity
  8
ZUWAKU
 62
     7
100
AcDbText
 10
106.4850421348313
 20
111.8917406060535
 30
0.0
 40
3.0
  1
ホーニング
 41
0.6377564979480165
  7
dcStyle1
 72
     5
 11
120.4850421348313
 21
111.8917406060535
 31
0.0
100
AcDbText
  0
TEXT
  5
353
330
1F
100
AcDbEntity
  8
ZUWAKU
 62
     7
100
AcDbText
 10
106.4850421348313
 20
101.8917406060535
 30
0.0
 40
3.0
  1
ドア厚：20、40mm
 41
0.6890047879616958
  7
dcStyle1
 72
     5
 11
130.6850421348313
 21
101.8917406060535
 31
0.0
100
AcDbText
  0
TEXT
  5
354
330
1F
100
AcDbEntity
  8
ZUWAKU
 62
     7
100
AcDbText
 10
90.08059899787429
 20
106.8917406060535
 30
0.0
 40
3.0
  1
取付ねじ
 41
0.6320622435020516
  7
dcStyle1
 72
     5
 11
101.1805989978743
 21
106.8917406060535
 31
0.0
100
AcDbText
  0
TEXT
  5
355
330
1F
100
AcDbEntity
  8
ZUWAKU
 62
     7
100
AcDbText
 10
106.4850421348313
 20
106.8917406060535
 30
0.0
 40
3.0
  1
＋なべタッピンねじ4×20
 41
0.6654850413370603
  7
dcStyle1
 72
     5
 11
140.0850421348313
 21
106.8917406060535
 31
0.0
100
AcDbText
  0
TEXT
  5
356
330
1F
100
AcDbEntity
  8
ZUWAKU
 62
     7
100
AcDbText
 10
90.08059899787429
 20
101.8917406060535
 30
0.0
 40
3.0
  1
仕　　様
 41
0.6320622435020516
  7
dcStyle1
 72
     5
 11
101.1805989978743
 21
101.8917406060535
 31
0.0
100
AcDbText
  0
INSERT
  5
357
330
1F
100
AcDbEntity
  8
0
  6
Continuous
100
AcDbBlockReference
  2
DC_GROUP_627-30 笠木戸当り_2
 10
0.0
 20
0.0
 30
0.0
  0
INSERT
  5
358
330
1F
100
AcDbEntity
  8
0
  6
Continuous
100
AcDbBlockReference
  2
DC_GROUP_627-30 笠木戸当り_12
 10
0.0
 20
0.0
 30
0.0
  0
INSERT
  5
359
330
1F
100
AcDbEntity
  8
0
  6
Continuous
100
AcDbBlockReference
  2
DC_GROUP_627-30 笠木戸当り_13
 10
0.0
 20
0.0
 30
0.0
  0
TEXT
  5
35A
330
1F
100
AcDbEntity
  8
ZUWAKU
 62
     2
100
AcDbText
 10
106.1834988554195
 20
126.8917406060535
 30
0.0
 40
3.0
  1
№627-30
 41
0.9908002735978115
  7
dcStyle1
 72
     5
 11
123.5834988554195
 21
126.8917406060535
 31
0.0
100
AcDbText
  0
TEXT
  5
35B
330
1F
100
AcDbEntity
  8
ZUWAKU
 62
     2
100
AcDbText
 10
106.3834988554195
 20
121.8917406060535
 30
0.0
 40
3.0
  1
笠木戸当り
 41
0.7744186046511629
  7
dcStyle1
 72
     5
 11
123.3834988554195
 21
121.8917406060535
 31
0.0
100
AcDbText
  0
LINE
  5
35C
330
1F
100
AcDbEntity
  8
ZUWAKU
  6
Continuous
 62
     6
370
    50
100
AcDbLine
 10
87.46404494382043
 20
131.0977303481027
 30
0.0
 11
188.0
 21
131.0977303481027
 31
0.0
  0
LINE
  5
35D
330
1F
100
AcDbEntity
  8
ZUWAKU
  6
Continuous
 62
     6
370
    50
100
AcDbLine
 10
87.46404494382043
 20
126.0977303481027
 30
0.0
 11
188.0
 21
126.0977303481027
 31
0.0
  0
LINE
  5
35E
330
1F
100
AcDbEntity
  8
ZUWAKU
  6
Continuous
 62
     6
370
    50
100
AcDbLine
 10
87.46404494382043
 20
121.0977303481027
 30
0.0
 11
188.0
 21
121.0977303481027
 31
0.0
  0
LINE
  5
35F
330
1F
100
AcDbEntity
  8
ZUWAKU
  6
Continuous
 62
     6
370
    50
100
AcDbLine
 10
87.46404494382043
 20
116.0977303481027
 30
0.0
 11
188.0
 21
116.0977303481027
 31
0.0
  0
LINE
  5
360
330
1F
100
AcDbEntity
  8
ZUWAKU
  6
Continuous
 62
     6
370
    50
100
AcDbLine
 10
87.46404494382043
 20
111.0977303481027
 30
0.0
 11
188.0
 21
111.0977303481027
 31
0.0
  0
LINE
  5
361
330
1F
100
AcDbEntity
  8
ZUWAKU
  6
Continuous
 62
     6
370
    50
100
AcDbLine
 10
87.46404494382043
 20
106.0977303481027
 30
0.0
 11
188.0
 21
106.0977303481027
 31
0.0
  0
LINE
  5
362
330
1F
100
AcDbEntity
  8
ZUWAKU
  6
Continuous
 62
     6
370
    50
100
AcDbLine
 10
87.46404494382043
 20
131.0977303481027
 30
0.0
 11
87.46404494382035
 21
96.09773034810269
 31
0.0
  0
LINE
  5
363
330
1F
100
AcDbEntity
  8
ZUWAKU
  6
Continuous
 62
     6
370
    50
100
AcDbLine
 10
103.8684880807775
 20
96.09773034810269
 30
0.0
 11
103.8684880807775
 21
131.0977303481027
 31
0.0
  0
LINE
  5
364
330
1F
100
AcDbEntity
  8
ZUWAKU
  6
Continuous
 62
     6
370
    50
100
AcDbLine
 10
87.46404494382044
 20
96.09773034810269
 30
0.0
 11
188.0
 21
96.09773034810269
 31
0.0
  0
LINE
  5
365
330
1F
100
AcDbEntity
  8
ZUWAKU
  6
HIDDENX2
 62
     6
370
    13
100
AcDbLine
 10
103.8684880807775
 20
101.0977303481027
 30
0.0
 11
188.0
 21
101.0977303481027
 31
0.0
  0
LINE
  5
366
330
1F
100
AcDbEntity
  8
0
  6
Continuous
 62
     6
370
   100
100
AcDbLine
 10
-2.669662921348315
 20
127.7869047645574
 30
0.0
 11
-2.669662921348315
 21
-138.3022696518973
 31
0.0
  0
VIEWPORT
  5
AE
102
{ACAD_XDICTIONARY
360
36E
102
}
330
1B
100
AcDbEntity
 67
     1
  8
0
100
AcDbViewport
 10
-0.0000000000000568
 20
0.0
 30
0.0
 40
1130.4
 41
829.8136179113842
 68
     1
 69
     1
 12
-0.0000000000000568
 22
0.0
 13
0.0
 23
0.0
 14
0.5
 24
0.5
 15
0.0
 25
0.0
 16
0.0
 26
0.0
 36
1.0
 17
0.0
 27
0.0
 37
0.0
 42
50.0
 43
0.0
 44
0.0
 45
829.8136179113842
 50
0.0
 51
0.0
 72
   100
 90
   557152
  1

281
     0
 71
     1
 74
     0
110
0.0
120
0.0
130
0.0
111
1.0
121
0.0
131
0.0
112
0.0
122
1.0
132
0.0
 79
     0
146
0.0
  0
ENDSEC
  0
SECTION
  2
OBJECTS
  0
DICTIONARY
  5
C
330
0
100
AcDbDictionary
281
     1
  3
ACAD_GROUP
350
D
  3
ACAD_LAYOUT
350
1A
  3
ACAD_MATERIAL
350
43
  3
ACAD_MLEADERSTYLE
350
369
  3
ACAD_MLINESTYLE
350
17
  3
ACAD_PLOTSETTINGS
350
19
  3
ACAD_PLOTSTYLENAME
350
E
  3
ACAD_SCALELIST
350
47
  3
ACAD_VISUALSTYLE
350
2A
  3
AcDbVariableDictionary
350
367
  0
DICTIONARY
  5
370
330
8
100
AcDbDictionary
280
     1
281
     1
  3
ACAD_XREC_ROUNDTRIP
360
371
  0
DICTIONARY
  5
36E
330
AE
100
AcDbDictionary
280
     1
281
     1
  3
ACAD_XREC_ROUNDTRIP
360
36F
  0
DICTIONARY
  5
D
102
{ACAD_REACTORS
330
C
102
}
330
C
100
AcDbDictionary
281
     1
  0
DICTIONARY
  5
1A
102
{ACAD_REACTORS
330
C
102
}
330
C
100
AcDbDictionary
281
     1
  3
Layout1
350
1E
  3
Layout2
350
26
  3
Model
350
22
  0
DICTIONARY
  5
43
102
{ACAD_REACTORS
330
C
102
}
330
C
100
AcDbDictionary
281
     1
  3
ByBlock
350
45
  3
ByLayer
350
44
  3
Global
350
46
  0
DICTIONARY
  5
369
102
{ACAD_REACTORS
330
C
102
}
330
C
100
AcDbDictionary
281
     1
  0
DICTIONARY
  5
17
102
{ACAD_REACTORS
330
C
102
}
330
C
100
AcDbDictionary
281
     1
  3
Standard
350
18
  0
DICTIONARY
  5
19
102
{ACAD_REACTORS
330
C
102
}
330
C
100
AcDbDictionary
281
     1
  0
ACDBDICTIONARYWDFLT
  5
E
102
{ACAD_REACTORS
330
C
102
}
330
C
100
AcDbDictionary
281
     1
  3
Normal
350
F
100
AcDbDictionaryWithDefault
340
F
  0
DICTIONARY
  5
47
102
{ACAD_REACTORS
330
C
102
}
330
C
100
AcDbDictionary
281
     1
  3
A0
350
48
  3
A1
350
49
  3
A2
350
4A
  3
A3
350
4B
  3
A4
350
4C
  3
A5
350
4D
  3
A6
350
4E
  3
A7
350
4F
  3
A8
350
50
  3
A9
350
51
  3
B0
350
52
  3
B1
350
53
  3
B2
350
54
  3
B3
350
55
  3
B4
350
56
  3
B5
350
57
  3
B6
350
58
  3
B7
350
59
  3
B8
350
5A
  3
B9
350
5B
  3
C0
350
5C
  3
C1
350
5D
  3
C2
350
5E
  3
C3
350
5F
  3
C4
350
60
  3
C5
350
61
  3
C6
350
62
  3
C7
350
63
  3
C8
350
64
  3
C9
350
65
  3
D0
350
66
  3
D1
350
67
  3
D2
350
68
  0
DICTIONARY
  5
2A
102
{ACAD_REACTORS
330
C
102
}
330
C
100
AcDbDictionary
281
     1
  3
2dWireframe
350
2F
  3
Basic
350
32
  3
Brighten
350
36
  3
ColorChange
350
3A
  3
Conceptual
350
34
  3
Dim
350
35
  3
EdgeColorOff
350
3D
  3
Facepattern
350
39
  3
Flat
350
2B
  3
FlatWithEdges
350
2C
  3
Gouraud
350
2D
  3
GouraudWithEdges
350
2E
  3
Hidden
350
31
  3
JitterOff
350
3B
  3
Linepattern
350
38
  3
OverhangOff
350
3C
  3
Realistic
350
33
  3
Shaded
350
42
  3
Shaded with edges
350
41
  3
Shades of Gray
350
3E
  3
Sketchy
350
3F
  3
Thicken
350
37
  3
Wireframe
350
30
  3
X-Ray
350
40
  0
DICTIONARY
  5
367
102
{ACAD_REACTORS
330
C
102
}
330
C
100
AcDbDictionary
281
     1
  3
CANNOSCALE
350
372
  3
DIMASSOC
350
36C
  3
HIDETEXT
350
36D
  3
MSLTSCALE
350
373
  0
XRECORD
  5
371
102
{ACAD_REACTORS
330
370
102
}
330
370
100
AcDbXrecord
280
     1
102
VTR_0.000_0.000_1.000_1.000_GRIDDISPLAY
 70
     3
102
VTR_0.000_0.000_1.000_1.000_GRIDMAJOR
 70
     5
102
VTR_0.000_0.000_1.000_1.000_DEFAULTLIGHTING
280
     1
102
VTR_0.000_0.000_1.000_1.000_DEFAULTLIGHTINGTYPE
 70
     1
102
VTR_0.000_0.000_1.000_1.000_BRIGHTNESS
141
0.0
102
VTR_0.000_0.000_1.000_1.000_CONTRAST
142
0.0
  0
XRECORD
  5
36F
102
{ACAD_REACTORS
330
36E
102
}
330
36E
100
AcDbXrecord
280
     1
102
GRIDDISPLAY
 70
     2
102
GRIDMAJOR
 70
     5
102
DEFAULTLIGHTING
280
     1
102
DEFAULTLIGHTINGTYPE
 70
     1
102
BRIGHTNESS
141
0.0
102
CONTRAST
142
0.0
  0
LAYOUT
  5
1E
102
{ACAD_REACTORS
330
1A
102
}
330
1A
100
AcDbPlotSettings
  1

  2
none_device
  4

  6

 40
0.0
 41
0.0
 42
0.0
 43
0.0
 44
0.0
 45
0.0
 46
0.0
 47
0.0
 48
0.0
 49
0.0
140
0.0
141
0.0
142
1.0
143
1.0
 70
   688
 72
     0
 73
     0
 74
     5
  7

 75
    16
147
1.0
148
0.0
149
0.0
100
AcDbLayout
  1
Layout1
 70
     0
 71
     1
 10
0.0
 20
0.0
 11
12.0
 21
9.0
 12
0.0
 22
0.0
 32
0.0
 14
1.000000000000000E+20
 24
1.000000000000000E+20
 34
1.000000000000000E+20
 15
-1.000000000000000E+20
 25
-1.000000000000000E+20
 35
-1.000000000000000E+20
146
0.0
 13
0.0
 23
0.0
 33
0.0
 16
1.0
 26
0.0
 36
0.0
 17
0.0
 27
1.0
 37
0.0
 76
     0
330
1B
331
AE
  0
LAYOUT
  5
26
102
{ACAD_REACTORS
330
1A
102
}
330
1A
100
AcDbPlotSettings
  1

  2
none_device
  4

  6

 40
0.0
 41
0.0
 42
0.0
 43
0.0
 44
0.0
 45
0.0
 46
0.0
 47
0.0
 48
0.0
 49
0.0
140
0.0
141
0.0
142
1.0
143
1.0
 70
   688
 72
     0
 73
     0
 74
     5
  7

 75
    16
147
1.0
148
0.0
149
0.0
100
AcDbLayout
  1
Layout2
 70
     1
 71
     2
 10
0.0
 20
0.0
 11
0.0
 21
0.0
 12
0.0
 22
0.0
 32
0.0
 14
0.0
 24
0.0
 34
0.0
 15
0.0
 25
0.0
 35
0.0
146
0.0
 13
0.0
 23
0.0
 33
0.0
 16
1.0
 26
0.0
 36
0.0
 17
0.0
 27
1.0
 37
0.0
 76
     0
330
23
  0
LAYOUT
  5
22
102
{ACAD_REACTORS
330
1A
102
}
330
1A
100
AcDbPlotSettings
  1

  2
none_device
  4
Letter_(8.50_x_11.00_Inches)
  6

 40
6.35
 41
6.35
 42
6.35000508
 43
6.35000508
 44
215.9
 45
279.4
 46
0.0
 47
0.0
 48
0.0
 49
0.0
140
0.0
141
0.0
142
1.0
143
1.0
 70
  1712
 72
     0
 73
     0
 74
     0
  7

 75
     0
147
1.0
148
0.0
149
0.0
100
AcDbLayout
  1
Model
 70
     1
 71
     0
 10
-210.0
 20
-148.5
 11
210.0
 21
148.5
 12
0.0
 22
0.0
 32
0.0
 14
-565.2000000000002
 24
-414.9068089556921
 34
0.0
 15
565.2
 25
414.9068089556921
 35
0.0
146
0.0
 13
0.0
 23
0.0
 33
0.0
 16
1.0
 26
0.0
 36
0.0
 17
0.0
 27
1.0
 37
0.0
 76
     0
330
1F
331
29
  0
MATERIAL
  5
45
102
{ACAD_REACTORS
330
43
102
}
102
{ACAD_XDICTIONARY
360
3A6
102
}
330
43
100
AcDbMaterial
  1
ByBlock
  0
MATERIAL
  5
44
102
{ACAD_REACTORS
330
43
102
}
102
{ACAD_XDICTIONARY
360
3A4
102
}
330
43
100
AcDbMaterial
  1
ByLayer
  0
MATERIAL
  5
46
102
{ACAD_REACTORS
330
43
102
}
102
{ACAD_XDICTIONARY
360
3A8
102
}
330
43
100
AcDbMaterial
  1
Global
  0
MLINESTYLE
  5
18
102
{ACAD_REACTORS
330
17
102
}
330
17
100
AcDbMlineStyle
  2
Standard
 70
     0
  3

 62
   256
 51
90.0
 52
90.0
 71
     2
 49
0.5
 62
   256
  6
BYLAYER
 49
-0.5
 62
   256
  6
BYLAYER
  0
ACDBPLACEHOLDER
  5
F
102
{ACAD_REACTORS
330
E
102
}
330
E
  0
SCALE
  5
48
102
{ACAD_REACTORS
330
47
102
}
330
47
100
AcDbScale
 70
     0
300
1:1
140
1.0
141
1.0
290
     1
  0
SCALE
  5
49
102
{ACAD_REACTORS
330
47
102
}
330
47
100
AcDbScale
 70
     0
300
1:2
140
1.0
141
2.0
290
     0
  0
SCALE
  5
4A
102
{ACAD_REACTORS
330
47
102
}
330
47
100
AcDbScale
 70
     0
300
1:4
140
1.0
141
4.0
290
     0
  0
SCALE
  5
4B
102
{ACAD_REACTORS
330
47
102
}
330
47
100
AcDbScale
 70
     0
300
1:5
140
1.0
141
5.0
290
     0
  0
SCALE
  5
4C
102
{ACAD_REACTORS
330
47
102
}
330
47
100
AcDbScale
 70
     0
300
1:8
140
1.0
141
8.0
290
     0
  0
SCALE
  5
4D
102
{ACAD_REACTORS
330
47
102
}
330
47
100
AcDbScale
 70
     0
300
1:10
140
1.0
141
10.0
290
     0
  0
SCALE
  5
4E
102
{ACAD_REACTORS
330
47
102
}
330
47
100
AcDbScale
 70
     0
300
1:16
140
1.0
141
16.0
290
     0
  0
SCALE
  5
4F
102
{ACAD_REACTORS
330
47
102
}
330
47
100
AcDbScale
 70
     0
300
1:20
140
1.0
141
20.0
290
     0
  0
SCALE
  5
50
102
{ACAD_REACTORS
330
47
102
}
330
47
100
AcDbScale
 70
     0
300
1:30
140
1.0
141
30.0
290
     0
  0
SCALE
  5
51
102
{ACAD_REACTORS
330
47
102
}
330
47
100
AcDbScale
 70
     0
300
1:40
140
1.0
141
40.0
290
     0
  0
SCALE
  5
52
102
{ACAD_REACTORS
330
47
102
}
330
47
100
AcDbScale
 70
     0
300
1:50
140
1.0
141
50.0
290
     0
  0
SCALE
  5
53
102
{ACAD_REACTORS
330
47
102
}
330
47
100
AcDbScale
 70
     0
300
1:100
140
1.0
141
100.0
290
     0
  0
SCALE
  5
54
102
{ACAD_REACTORS
330
47
102
}
330
47
100
AcDbScale
 70
     0
300
2:1
140
2.0
141
1.0
290
     0
  0
SCALE
  5
55
102
{ACAD_REACTORS
330
47
102
}
330
47
100
AcDbScale
 70
     0
300
4:1
140
4.0
141
1.0
290
     0
  0
SCALE
  5
56
102
{ACAD_REACTORS
330
47
102
}
330
47
100
AcDbScale
 70
     0
300
8:1
140
8.0
141
1.0
290
     0
  0
SCALE
  5
57
102
{ACAD_REACTORS
330
47
102
}
330
47
100
AcDbScale
 70
     0
300
10:1
140
10.0
141
1.0
290
     0
  0
SCALE
  5
58
102
{ACAD_REACTORS
330
47
102
}
330
47
100
AcDbScale
 70
     0
300
100:1
140
100.0
141
1.0
290
     0
  0
SCALE
  5
59
102
{ACAD_REACTORS
330
47
102
}
330
47
100
AcDbScale
 70
     0
300
1/128" = 1'-0"
140
0.0078125
141
12.0
290
     0
  0
SCALE
  5
5A
102
{ACAD_REACTORS
330
47
102
}
330
47
100
AcDbScale
 70
     0
300
1/64" = 1'-0"
140
0.015625
141
12.0
290
     0
  0
SCALE
  5
5B
102
{ACAD_REACTORS
330
47
102
}
330
47
100
AcDbScale
 70
     0
300
1/32" = 1'-0"
140
0.03125
141
12.0
290
     0
  0
SCALE
  5
5C
102
{ACAD_REACTORS
330
47
102
}
330
47
100
AcDbScale
 70
     0
300
1/16" = 1'-0"
140
0.0625
141
12.0
290
     0
  0
SCALE
  5
5D
102
{ACAD_REACTORS
330
47
102
}
330
47
100
AcDbScale
 70
     0
300
3/32" = 1'-0"
140
0.09375
141
12.0
290
     0
  0
SCALE
  5
5E
102
{ACAD_REACTORS
330
47
102
}
330
47
100
AcDbScale
 70
     0
300
1/8" = 1'-0"
140
0.125
141
12.0
290
     0
  0
SCALE
  5
5F
102
{ACAD_REACTORS
330
47
102
}
330
47
100
AcDbScale
 70
     0
300
3/16" = 1'-0"
140
0.1875
141
12.0
290
     0
  0
SCALE
  5
60
102
{ACAD_REACTORS
330
47
102
}
330
47
100
AcDbScale
 70
     0
300
1/4" = 1'-0"
140
0.25
141
12.0
290
     0
  0
SCALE
  5
61
102
{ACAD_REACTORS
330
47
102
}
330
47
100
AcDbScale
 70
     0
300
3/8" = 1'-0"
140
0.375
141
12.0
290
     0
  0
SCALE
  5
62
102
{ACAD_REACTORS
330
47
102
}
330
47
100
AcDbScale
 70
     0
300
1/2" = 1'-0"
140
0.5
141
12.0
290
     0
  0
SCALE
  5
63
102
{ACAD_REACTORS
330
47
102
}
330
47
100
AcDbScale
 70
     0
300
3/4" = 1'-0"
140
0.75
141
12.0
290
     0
  0
SCALE
  5
64
102
{ACAD_REACTORS
330
47
102
}
330
47
100
AcDbScale
 70
     0
300
1" = 1'-0"
140
1.0
141
12.0
290
     0
  0
SCALE
  5
65
102
{ACAD_REACTORS
330
47
102
}
330
47
100
AcDbScale
 70
     0
300
1-1/2" = 1'-0"
140
1.5
141
12.0
290
     0
  0
SCALE
  5
66
102
{ACAD_REACTORS
330
47
102
}
330
47
100
AcDbScale
 70
     0
300
3" = 1'-0"
140
3.0
141
12.0
290
     0
  0
SCALE
  5
67
102
{ACAD_REACTORS
330
47
102
}
330
47
100
AcDbScale
 70
     0
300
6" = 1'-0"
140
6.0
141
12.0
290
     0
  0
SCALE
  5
68
102
{ACAD_REACTORS
330
47
102
}
330
47
100
AcDbScale
 70
     0
300
1'-0" = 1'-0"
140
12.0
141
12.0
290
     0
  0
VISUALSTYLE
  5
2F
102
{ACAD_REACTORS
330
2A
102
}
102
{ACAD_XDICTIONARY
360
37C
102
}
330
2A
100
AcDbVisualStyle
  2
2dWireframe
 70
     4
 71
     0
 72
     2
 73
     0
 90
        0
 40
0.6
 41
30.0
 62
     5
 63
     7
 74
     1
 91
        4
 64
     7
 65
   257
 75
     1
175
     1
 42
1.0
 92
        0
 66
   257
 43
1.0
 76
     1
 77
     6
 78
     2
 67
     7
 79
     5
170
     0
171
     0
290
     0
174
     0
 93
        1
 44
0.0
173
     0
291
     0
 45
0.0
1001
ACAD
1000
AcDbSavedByObjectVersion
1070
     0
  0
VISUALSTYLE
  5
32
102
{ACAD_REACTORS
330
2A
102
}
102
{ACAD_XDICTIONARY
360
382
102
}
330
2A
100
AcDbVisualStyle
  2
Basic
 70
     7
 71
     1
 72
     0
 73
     1
 90
        0
 40
0.6
 41
30.0
 62
     5
 63
     7
 74
     0
 91
        4
 64
     7
 65
   257
 75
     1
175
     1
 42
1.0
 92
        8
 66
     7
 43
1.0
 76
     1
 77
     6
 78
     2
 67
     7
 79
     5
170
     0
171
     0
290
     0
174
     0
 93
        1
 44
0.0
173
     0
291
     1
 45
0.0
1001
ACAD
1000
AcDbSavedByObjectVersion
1070
     0
  0
VISUALSTYLE
  5
36
102
{ACAD_REACTORS
330
2A
102
}
102
{ACAD_XDICTIONARY
360
38A
102
}
330
2A
100
AcDbVisualStyle
  2
Brighten
 70
    12
 71
     2
 72
     2
 73
     0
 90
        0
 40
0.6
 41
30.0
 62
     5
 63
     7
 74
     1
 91
        4
 64
     7
 65
   257
 75
     1
175
     1
 42
1.0
 92
        8
 66
     7
 43
1.0
 76
     1
 77
     6
 78
     2
 67
     7
 79
     5
170
     0
171
     0
290
     0
174
     0
 93
        1
 44
50.0
173
     0
291
     1
 45
0.0
1001
ACAD
1000
AcDbSavedByObjectVersion
1070
     0
  0
VISUALSTYLE
  5
3A
102
{ACAD_REACTORS
330
2A
102
}
102
{ACAD_XDICTIONARY
360
392
102
}
330
2A
100
AcDbVisualStyle
  2
ColorChange
 70
    16
 71
     2
 72
     2
 73
     3
 90
        0
 40
0.6
 41
30.0
 62
     5
 63
     8
 74
     1
 91
        4
 64
     7
 65
   257
 75
     1
175
     1
 42
1.0
 92
        8
 66
     8
 43
1.0
 76
     1
 77
     6
 78
     2
 67
     7
 79
     5
170
     0
171
     0
290
     0
174
     0
 93
        1
 44
0.0
173
     0
291
     1
 45
0.0
1001
ACAD
1000
AcDbSavedByObjectVersion
1070
     0
  0
VISUALSTYLE
  5
34
102
{ACAD_REACTORS
330
2A
102
}
102
{ACAD_XDICTIONARY
360
386
102
}
330
2A
100
AcDbVisualStyle
  2
Conceptual
 70
     9
 71
     3
 72
     2
 73
     0
 90
        0
 40
0.6
 41
30.0
 62
     5
 63
     7
 74
     2
 91
        2
 64
     7
 65
   257
 75
     1
175
     1
 42
179.0
 92
        8
 66
     7
 43
1.0
 76
     1
 77
     6
 78
     2
 67
     7
 79
     3
170
     0
171
     0
290
     0
174
     0
 93
        1
 44
0.0
173
     0
291
     0
 45
0.0
1001
ACAD
1000
AcDbSavedByObjectVersion
1070
     0
  0
VISUALSTYLE
  5
35
102
{ACAD_REACTORS
330
2A
102
}
102
{ACAD_XDICTIONARY
360
388
102
}
330
2A
100
AcDbVisualStyle
  2
Dim
 70
    11
 71
     2
 72
     2
 73
     0
 90
        0
 40
0.6
 41
30.0
 62
     5
 63
     7
 74
     1
 91
        4
 64
     7
 65
   257
 75
     1
175
     1
 42
1.0
 92
        8
 66
     7
 43
1.0
 76
     1
 77
     6
 78
     2
 67
     7
 79
     5
170
     0
171
     0
290
     0
174
     0
 93
        1
 44
-50.0
173
     0
291
     1
 45
0.0
1001
ACAD
1000
AcDbSavedByObjectVersion
1070
     0
  0
VISUALSTYLE
  5
3D
102
{ACAD_REACTORS
330
2A
102
}
102
{ACAD_XDICTIONARY
360
398
102
}
330
2A
100
AcDbVisualStyle
  2
EdgeColorOff
 70
    22
 71
     2
 72
     2
 73
     0
 90
        0
 40
0.6
 41
30.0
 62
     5
 63
     7
 74
     1
 91
        4
 64
     7
 65
   257
 75
     1
175
     1
 42
1.0
 92
        8
 66
     7
 43
1.0
 76
     1
 77
     6
 78
     2
 67
     7
 79
     5
170
     0
171
     0
290
     0
174
     0
 93
        1
 44
0.0
173
     0
291
     1
 45
0.0
1001
ACAD
1000
AcDbSavedByObjectVersion
1070
     0
  0
VISUALSTYLE
  5
39
102
{ACAD_REACTORS
330
2A
102
}
102
{ACAD_XDICTIONARY
360
390
102
}
330
2A
100
AcDbVisualStyle
  2
Facepattern
 70
    15
 71
     2
 72
     2
 73
     0
 90
        0
 40
0.6
 41
30.0
 62
     5
 63
     7
 74
     1
 91
        4
 64
     7
 65
   257
 75
     1
175
     1
 42
1.0
 92
        8
 66
     7
 43
1.0
 76
     1
 77
     6
 78
     2
 67
     7
 79
     5
170
     0
171
     0
290
     0
174
     0
 93
        1
 44
0.0
173
     0
291
     1
 45
0.0
1001
ACAD
1000
AcDbSavedByObjectVersion
1070
     0
  0
VISUALSTYLE
  5
2B
102
{ACAD_REACTORS
330
2A
102
}
102
{ACAD_XDICTIONARY
360
374
102
}
330
2A
100
AcDbVisualStyle
  2
Flat
 70
     0
 71
     2
 72
     1
 73
     1
 90
        2
 40
0.6
 41
30.0
 62
     5
 63
     7
 74
     0
 91
        0
 64
     7
 65
   257
 75
     1
175
     1
 42
1.0
 92
        8
 66
     7
 43
1.0
 76
     1
 77
     6
 78
     2
 67
     7
 79
     5
170
     0
171
     0
290
     0
174
     0
 93
       13
 44
0.0
173
     0
291
     1
 45
0.0
1001
ACAD
1000
AcDbSavedByObjectVersion
1070
     0
  0
VISUALSTYLE
  5
2C
102
{ACAD_REACTORS
330
2A
102
}
102
{ACAD_XDICTIONARY
360
376
102
}
330
2A
100
AcDbVisualStyle
  2
FlatWithEdges
 70
     1
 71
     2
 72
     1
 73
     1
 90
        2
 40
0.6
 41
30.0
 62
     5
 63
     7
 74
     1
 91
        0
 64
     7
 65
   257
 75
     1
175
     1
 42
1.0
 92
        0
 66
   257
 43
1.0
 76
     1
 77
     6
 78
     2
 67
     7
 79
     5
170
     0
171
     0
290
     0
174
     0
 93
       13
 44
0.0
173
     0
291
     1
 45
0.0
1001
ACAD
1000
AcDbSavedByObjectVersion
1070
     0
  0
VISUALSTYLE
  5
2D
102
{ACAD_REACTORS
330
2A
102
}
102
{ACAD_XDICTIONARY
360
378
102
}
330
2A
100
AcDbVisualStyle
  2
Gouraud
 70
     2
 71
     2
 72
     2
 73
     1
 90
        2
 40
0.6
 41
30.0
 62
     5
 63
     7
 74
     0
 91
        0
 64
     7
 65
   257
 75
     1
175
     1
 42
1.0
 92
        0
 66
     7
 43
1.0
 76
     1
 77
     6
 78
     2
 67
     7
 79
     5
170
     0
171
     0
290
     0
174
     0
 93
       13
 44
0.0
173
     0
291
     1
 45
0.0
1001
ACAD
1000
AcDbSavedByObjectVersion
1070
     0
  0
VISUALSTYLE
  5
2E
102
{ACAD_REACTORS
330
2A
102
}
102
{ACAD_XDICTIONARY
360
37A
102
}
330
2A
100
AcDbVisualStyle
  2
GouraudWithEdges
 70
     3
 71
     2
 72
     2
 73
     1
 90
        2
 40
0.6
 41
30.0
 62
     5
 63
     7
 74
     1
 91
        0
 64
     7
 65
   257
 75
     1
175
     1
 42
1.0
 92
        0
 66
   257
 43
1.0
 76
     1
 77
     6
 78
     2
 67
     7
 79
     5
170
     0
171
     0
290
     0
174
     0
 93
       13
 44
0.0
173
     0
291
     1
 45
0.0
1001
ACAD
1000
AcDbSavedByObjectVersion
1070
     0
  0
VISUALSTYLE
  5
31
102
{ACAD_REACTORS
330
2A
102
}
102
{ACAD_XDICTIONARY
360
380
102
}
330
2A
100
AcDbVisualStyle
  2
Hidden
 70
     6
 71
     1
 72
     2
 73
     2
 90
        0
 40
0.6
 41
30.0
 62
     5
 63
     7
 74
     2
 91
        2
 64
     7
 65
   257
 75
     2
175
     1
 42
40.0
 92
        0
 66
   257
 43
1.0
 76
     1
 77
     6
 78
     2
 67
     7
 79
     3
170
     0
171
     0
290
     0
174
     0
 93
        1
 44
0.0
173
     0
291
     0
 45
0.0
1001
ACAD
1000
AcDbSavedByObjectVersion
1070
     0
  0
VISUALSTYLE
  5
3B
102
{ACAD_REACTORS
330
2A
102
}
102
{ACAD_XDICTIONARY
360
394
102
}
330
2A
100
AcDbVisualStyle
  2
JitterOff
 70
    20
 71
     2
 72
     2
 73
     0
 90
        0
 40
0.6
 41
30.0
 62
     5
 63
     7
 74
     1
 91
        4
 64
     7
 65
   257
 75
     1
175
     1
 42
1.0
 92
       10
 66
     7
 43
1.0
 76
     1
 77
     6
 78
     2
 67
     7
 79
     5
170
     0
171
     0
290
     0
174
     0
 93
        1
 44
0.0
173
     0
291
     1
 45
0.0
1001
ACAD
1000
AcDbSavedByObjectVersion
1070
     0
  0
VISUALSTYLE
  5
38
102
{ACAD_REACTORS
330
2A
102
}
102
{ACAD_XDICTIONARY
360
38E
102
}
330
2A
100
AcDbVisualStyle
  2
Linepattern
 70
    14
 71
     2
 72
     2
 73
     0
 90
        0
 40
0.6
 41
30.0
 62
     5
 63
     7
 74
     1
 91
        4
 64
     7
 65
   257
 75
     7
175
     7
 42
1.0
 92
        8
 66
     7
 43
1.0
 76
     1
 77
     6
 78
     2
 67
     7
 79
     5
170
     0
171
     0
290
     0
174
     0
 93
        1
 44
0.0
173
     0
291
     1
 45
0.0
1001
ACAD
1000
AcDbSavedByObjectVersion
1070
     0
  0
VISUALSTYLE
  5
3C
102
{ACAD_REACTORS
330
2A
102
}
102
{ACAD_XDICTIONARY
360
396
102
}
330
2A
100
AcDbVisualStyle
  2
OverhangOff
 70
    21
 71
     2
 72
     2
 73
     0
 90
        0
 40
0.6
 41
30.0
 62
     5
 63
     7
 74
     1
 91
        4
 64
     7
 65
   257
 75
     1
175
     1
 42
1.0
 92
        9
 66
     7
 43
1.0
 76
     1
 77
     6
 78
     2
 67
     7
 79
     5
170
     0
171
     0
290
     0
174
     0
 93
        1
 44
0.0
173
     0
291
     1
 45
0.0
1001
ACAD
1000
AcDbSavedByObjectVersion
1070
     0
  0
VISUALSTYLE
  5
33
102
{ACAD_REACTORS
330
2A
102
}
102
{ACAD_XDICTIONARY
360
384
102
}
330
2A
100
AcDbVisualStyle
  2
Realistic
 70
     8
 71
     2
 72
     3
 73
     0
 90
        2
 40
0.6
 41
30.0
 62
     5
 63
     7
 74
     0
 91
        0
 64
     7
 65
   257
 75
     1
175
     1
 42
1.0
 92
        8
 66
   257
 43
1.0
 76
     1
 77
     6
 78
     2
 67
     7
 79
     3
170
     0
171
     0
290
     0
174
     0
 93
       13
 44
0.0
173
     0
291
     0
 45
0.0
1001
ACAD
1000
AcDbSavedByObjectVersion
1070
     0
  0
VISUALSTYLE
  5
42
102
{ACAD_REACTORS
330
2A
102
}
102
{ACAD_XDICTIONARY
360
3A2
102
}
330
2A
100
AcDbVisualStyle
  2
Shaded
 70
    27
 71
     2
 72
     2
 73
     1
 90
        2
 40
0.6
 41
30.0
 62
     5
 63
     7
 74
     0
 91
        4
 64
     7
 65
   257
 75
     1
175
     1
 42
1.0
 92
        8
 66
   257
 43
1.0
 76
     1
 77
     6
 78
     2
 67
     8
 79
     3
170
     0
171
     0
290
     0
174
     0
 93
        5
 44
0.0
173
     0
291
     0
 45
0.0
1001
ACAD
1000
AcDbSavedByObjectVersion
1070
     0
  0
VISUALSTYLE
  5
41
102
{ACAD_REACTORS
330
2A
102
}
102
{ACAD_XDICTIONARY
360
3A0
102
}
330
2A
100
AcDbVisualStyle
  2
Shaded with edges
 70
    26
 71
     2
 72
     2
 73
     1
 90
        2
 40
0.6
 41
30.0
 62
     5
 63
     7
 74
     1
 91
       10
 64
     7
 65
   257
 75
     2
175
     1
 42
1.0
 92
        8
 66
   257
 43
1.0
 76
     1
 77
     6
 78
     2
 67
     7
 79
     3
170
     0
171
     0
290
     0
174
     0
 93
        5
 44
0.0
173
     0
291
     0
 45
0.0
1001
ACAD
1000
AcDbSavedByObjectVersion
1070
     0
  0
VISUALSTYLE
  5
3E
102
{ACAD_REACTORS
330
2A
102
}
102
{ACAD_XDICTIONARY
360
39A
102
}
330
2A
100
AcDbVisualStyle
  2
Shades of Gray
 70
    23
 71
     2
 72
     2
 73
     3
 90
        0
 40
0.6
 41
30.0
 62
     5
 63
     7
 74
     2
 91
        2
 64
     7
 65
     7
 75
     1
175
     1
 42
40.0
 92
        8
 66
     7
 43
1.0
 76
     1
 77
     6
 78
     2
 67
     7
 79
     3
170
     0
171
     0
290
     0
174
     0
 93
        1
 44
0.0
173
     0
291
     0
 45
0.0
1001
ACAD
1000
AcDbSavedByObjectVersion
1070
     0
  0
VISUALSTYLE
  5
3F
102
{ACAD_REACTORS
330
2A
102
}
102
{ACAD_XDICTIONARY
360
39C
102
}
330
2A
100
AcDbVisualStyle
  2
Sketchy
 70
    24
 71
     1
 72
     2
 73
     2
 90
        0
 40
0.6
 41
30.0
 62
     5
 63
     7
 74
     2
 91
        2
 64
     7
 65
     7
 75
     1
175
     1
 42
40.0
 92
       11
 66
     7
 43
1.0
 76
     1
 77
     6
 78
     2
 67
     7
 79
     6
170
     0
171
     0
290
     0
174
     0
 93
        1
 44
0.0
173
     0
291
     0
 45
0.0
1001
ACAD
1000
AcDbSavedByObjectVersion
1070
     0
  0
VISUALSTYLE
  5
37
102
{ACAD_REACTORS
330
2A
102
}
102
{ACAD_XDICTIONARY
360
38C
102
}
330
2A
100
AcDbVisualStyle
  2
Thicken
 70
    13
 71
     2
 72
     2
 73
     0
 90
        0
 40
0.6
 41
30.0
 62
     5
 63
     7
 74
     1
 91
        4
 64
     7
 65
   257
 75
     1
175
     1
 42
1.0
 92
       12
 66
     7
 43
1.0
 76
     1
 77
     6
 78
     2
 67
     7
 79
     5
170
     0
171
     0
290
     0
174
     0
 93
        1
 44
0.0
173
     0
291
     1
 45
0.0
1001
ACAD
1000
AcDbSavedByObjectVersion
1070
     0
  0
VISUALSTYLE
  5
30
102
{ACAD_REACTORS
330
2A
102
}
102
{ACAD_XDICTIONARY
360
37E
102
}
330
2A
100
AcDbVisualStyle
  2
Wireframe
 70
     5
 71
     0
 72
     2
 73
     0
 90
        0
 40
0.6
 41
30.0
 62
     5
 63
     7
 74
     1
 91
        4
 64
     7
 65
   257
 75
     1
175
     1
 42
1.0
 92
        0
 66
   257
 43
1.0
 76
     1
 77
     6
 78
     2
 67
     7
 79
     3
170
     0
171
     0
290
     0
174
     0
 93
        1
 44
0.0
173
     0
291
     0
 45
0.0
1001
ACAD
1000
AcDbSavedByObjectVersion
1070
     0
  0
VISUALSTYLE
  5
40
102
{ACAD_REACTORS
330
2A
102
}
102
{ACAD_XDICTIONARY
360
39E
102
}
330
2A
100
AcDbVisualStyle
  2
X-Ray
 70
    25
 71
     2
 72
     2
 73
     1
 90
        1
 40
0.5
 41
30.0
 62
     5
 63
     7
 74
     1
 91
        0
 64
     7
 65
   257
 75
     1
175
     1
 42
1.0
 92
        8
 66
     7
 43
1.0
 76
     1
 77
     6
 78
     2
 67
     7
 79
     3
170
     0
171
     0
290
     0
174
     0
 93
       13
 44
0.0
173
     0
291
     0
 45
0.0
1001
ACAD
1000
AcDbSavedByObjectVersion
1070
     0
  0
DICTIONARYVAR
  5
372
102
{ACAD_REACTORS
330
367
102
}
330
367
100
DictionaryVariables
280
     0
  1
1:1
  0
DICTIONARYVAR
  5
36C
102
{ACAD_REACTORS
330
367
102
}
330
367
100
DictionaryVariables
280
     0
  1
2
  0
DICTIONARYVAR
  5
36D
102
{ACAD_REACTORS
330
367
102
}
330
367
100
DictionaryVariables
280
     0
  1
1
  0
DICTIONARYVAR
  5
373
102
{ACAD_REACTORS
330
367
102
}
330
367
100
DictionaryVariables
280
     0
  1
1
  0
DICTIONARY
  5
3A6
330
45
100
AcDbDictionary
280
     1
281
     1
  3
ACAD_XREC_ROUNDTRIP
360
3A7
  0
DICTIONARY
  5
3A4
330
44
100
AcDbDictionary
280
     1
281
     1
  3
ACAD_XREC_ROUNDTRIP
360
3A5
  0
DICTIONARY
  5
3A8
330
46
100
AcDbDictionary
280
     1
281
     1
  3
ACAD_XREC_ROUNDTRIP
360
3A9
  0
DICTIONARY
  5
37C
330
2F
100
AcDbDictionary
280
     1
281
     1
  3
ACAD_XREC_ROUNDTRIP
360
37D
  0
DICTIONARY
  5
382
330
32
100
AcDbDictionary
280
     1
281
     1
  3
ACAD_XREC_ROUNDTRIP
360
383
  0
DICTIONARY
  5
38A
330
36
100
AcDbDictionary
280
     1
281
     1
  3
ACAD_XREC_ROUNDTRIP
360
38B
  0
DICTIONARY
  5
392
330
3A
100
AcDbDictionary
280
     1
281
     1
  3
ACAD_XREC_ROUNDTRIP
360
393
  0
DICTIONARY
  5
386
330
34
100
AcDbDictionary
280
     1
281
     1
  3
ACAD_XREC_ROUNDTRIP
360
387
  0
DICTIONARY
  5
388
330
35
100
AcDbDictionary
280
     1
281
     1
  3
ACAD_XREC_ROUNDTRIP
360
389
  0
DICTIONARY
  5
398
330
3D
100
AcDbDictionary
280
     1
281
     1
  3
ACAD_XREC_ROUNDTRIP
360
399
  0
DICTIONARY
  5
390
330
39
100
AcDbDictionary
280
     1
281
     1
  3
ACAD_XREC_ROUNDTRIP
360
391
  0
DICTIONARY
  5
374
330
2B
100
AcDbDictionary
280
     1
281
     1
  3
ACAD_XREC_ROUNDTRIP
360
375
  0
DICTIONARY
  5
376
330
2C
100
AcDbDictionary
280
     1
281
     1
  3
ACAD_XREC_ROUNDTRIP
360
377
  0
DICTIONARY
  5
378
330
2D
100
AcDbDictionary
280
     1
281
     1
  3
ACAD_XREC_ROUNDTRIP
360
379
  0
DICTIONARY
  5
37A
330
2E
100
AcDbDictionary
280
     1
281
     1
  3
ACAD_XREC_ROUNDTRIP
360
37B
  0
DICTIONARY
  5
380
330
31
100
AcDbDictionary
280
     1
281
     1
  3
ACAD_XREC_ROUNDTRIP
360
381
  0
DICTIONARY
  5
394
330
3B
100
AcDbDictionary
280
     1
281
     1
  3
ACAD_XREC_ROUNDTRIP
360
395
  0
DICTIONARY
  5
38E
330
38
100
AcDbDictionary
280
     1
281
     1
  3
ACAD_XREC_ROUNDTRIP
360
38F
  0
DICTIONARY
  5
396
330
3C
100
AcDbDictionary
280
     1
281
     1
  3
ACAD_XREC_ROUNDTRIP
360
397
  0
DICTIONARY
  5
384
330
33
100
AcDbDictionary
280
     1
281
     1
  3
ACAD_XREC_ROUNDTRIP
360
385
  0
DICTIONARY
  5
3A2
330
42
100
AcDbDictionary
280
     1
281
     1
  3
ACAD_XREC_ROUNDTRIP
360
3A3
  0
DICTIONARY
  5
3A0
330
41
100
AcDbDictionary
280
     1
281
     1
  3
ACAD_XREC_ROUNDTRIP
360
3A1
  0
DICTIONARY
  5
39A
330
3E
100
AcDbDictionary
280
     1
281
     1
  3
ACAD_XREC_ROUNDTRIP
360
39B
  0
DICTIONARY
  5
39C
330
3F
100
AcDbDictionary
280
     1
281
     1
  3
ACAD_XREC_ROUNDTRIP
360
39D
  0
DICTIONARY
  5
38C
330
37
100
AcDbDictionary
280
     1
281
     1
  3
ACAD_XREC_ROUNDTRIP
360
38D
  0
DICTIONARY
  5
37E
330
30
100
AcDbDictionary
280
     1
281
     1
  3
ACAD_XREC_ROUNDTRIP
360
37F
  0
DICTIONARY
  5
39E
330
40
100
AcDbDictionary
280
     1
281
     1
  3
ACAD_XREC_ROUNDTRIP
360
39F
  0
XRECORD
  5
3A7
102
{ACAD_REACTORS
330
3A6
102
}
330
3A6
100
AcDbXrecord
280
     1
102
MATERIAL
148
0.0
149
0.0
149
0.0
 93
        0
 94
      127
282
     0
 72
     1
 77
     1
171
     1
175
     1
179
     1
273
     0
  0
XRECORD
  5
3A5
102
{ACAD_REACTORS
330
3A4
102
}
330
3A4
100
AcDbXrecord
280
     1
102
MATERIAL
148
0.0
149
0.0
149
0.0
 93
        0
 94
      127
282
     0
 72
     1
 77
     1
171
     1
175
     1
179
     1
273
     0
  0
XRECORD
  5
3A9
102
{ACAD_REACTORS
330
3A8
102
}
330
3A8
100
AcDbXrecord
280
     1
102
MATERIAL
148
0.0
149
0.0
149
0.0
 93
        0
 94
      127
282
     0
 72
     1
 77
     1
171
     1
175
     1
179
     1
273
     0
  0
XRECORD
  5
37D
102
{ACAD_REACTORS
330
37C
102
}
330
37C
100
AcDbXrecord
280
     1
102
RTVSPropertyOp0
 70
     1
102
RTVSPropertyOp1
 70
     1
102
RTVSPropertyOp2
 70
     1
102
RTVSPropertyOp3
 70
     1
102
RTVSPropertyOp4
 70
     1
102
RTVSPropertyOp5
 70
     1
102
RTVSPropertyOp6
 70
     1
102
RTVSPropertyOp7
 70
     1
102
RTVSPropertyOp8
 70
     1
102
RTVSPropertyOp9
 70
     1
102
RTVSPropertyOp10
 70
     1
102
RTVSPropertyOp11
 70
     1
102
RTVSPropertyOp12
 70
     1
102
RTVSPropertyOp13
 70
     1
102
RTVSPropertyOp14
 70
     1
102
RTVSPropertyOp15
 70
     1
102
RTVSPropertyOp16
 70
     1
102
RTVSPropertyOp17
 70
     1
102
RTVSPropertyOp18
 70
     1
102
RTVSPropertyOp19
 70
     1
102
RTVSPropertyOp20
 70
     1
102
RTVSPropertyOp21
 70
     1
102
RTVSPropertyOp22
 70
     1
102
RTVSPropertyOp23
 70
     1
102
RTVSPropertyOp24
 70
     1
102
RTVSPropertyOp25
 70
     1
102
RTVSPropertyOp26
 70
     1
102
RTVSPropertyOp27
 70
     1
102
RTVSPropertyOp28
 70
     1
102
RTVSPropertyOp29
 70
     1
102
RTVSPropertyOp30
 70
     1
102
RTVSPropertyOp31
 70
     1
102
RTVSPropertyOp32
 70
     1
102
RTVSPropertyOp33
 70
     1
102
RTVSPropertyOp34
 70
     1
102
RTVSPropertyOp35
 70
     1
102
RTVSPropertyOp36
 70
     1
102
RTVSPropertyOp37
 70
     1
102
RTVSPropertyOp38
 70
     1
102
RTVSPropertyOp39
 70
     1
102
RTVSPropertyOp40
 70
     1
102
RTVSPropertyOp41
 70
     1
102
RTVSPropertyOp42
 70
     1
102
RTVSPropertyOp43
 70
     1
102
RTVSPropertyOp44
 70
     1
102
RTVSPropertyOp45
 70
     1
102
RTVSPropertyOp46
 70
     1
102
RTVSPropertyOp47
 70
     1
102
RTVSPropertyOp48
 70
     1
102
RTVSPropertyOp49
 70
     1
102
RTVSPropertyOp50
 70
     1
102
RTVSPropertyOp51
 70
     0
102
RTVSPropertyOp52
 70
     0
102
RTVSPropertyOp53
 70
     1
102
RTVSPropertyOp54
 70
     1
102
RTVSPropertyOp55
 70
     1
102
RTVSPropertyOp56
 70
     1
102
RTVSPropertyOp57
 70
     1
102
RTVSPost2010Prop28
280
     1
102
RTVSPost2010PropOp28
 70
     1
102
RTVSPost2010Prop29
280
     1
102
RTVSPost2010PropOp29
 70
     1
102
RTVSPost2010Prop30
280
     0
102
RTVSPost2010PropOp30
 70
     1
102
RTVSPost2010Prop31
280
     0
102
RTVSPost2010PropOp31
 70
     1
102
RTVSPost2010Prop32
280
     0
102
RTVSPost2010PropOp32
 70
     1
102
RTVSPost2010Prop33
280
     0
102
RTVSPost2010PropOp33
 70
     1
102
RTVSPost2010Prop34
280
     0
102
RTVSPost2010PropOp34
 70
     1
102
RTVSPost2010Prop35
280
     0
102
RTVSPost2010PropOp35
 70
     1
102
RTVSPost2010Prop36
280
     0
102
RTVSPost2010PropOp36
 70
     1
102
RTVSPost2010Prop37
 90
       50
102
RTVSPost2010PropOp37
 70
     1
102
RTVSPost2010Prop38
140
0.0
102
RTVSPost2010PropOp38
 70
     1
102
RTVSPost2010Prop39
140
1.0
102
RTVSPost2010PropOp39
 70
     1
102
RTVSPost2010Prop40
 90
        0
102
RTVSPost2010PropOp40
 70
     1
102
RTVSPost2010Prop41ColorIndex
 90
       18
102
RTVSPost2010Prop41ColorRGB
 90
        0
102
RTVSPost2010PropOp41
 70
     1
102
RTVSPost2010Prop42
 90
       50
102
RTVSPost2010PropOp42
 70
     1
102
RTVSPost2010Prop43
 90
        3
102
RTVSPost2010PropOp43
 70
     1
102
RTVSPost2010Prop44ColorIndex
 90
        5
102
RTVSPost2010Prop44ColorRGB
 90
      255
102
RTVSPost2010PropOp44
 70
     1
102
RTVSPost2010Prop45
280
     0
102
RTVSPost2010PropOp45
 70
     1
102
RTVSPost2010Prop46
 90
       50
102
RTVSPost2010PropOp46
 70
     1
102
RTVSPost2010Prop47
 90
       50
102
RTVSPost2010PropOp47
 70
     1
102
RTVSPost2010Prop48
 90
       50
102
RTVSPost2010PropOp48
 70
     1
102
RTVSPost2010Prop49
280
     0
102
RTVSPost2010PropOp49
 70
     1
102
RTVSPost2010Prop50
 90
       50
102
RTVSPost2010PropOp50
 70
     1
102
RTVSPost2010Prop51ColorIndex
 90
      256
102
RTVSPost2010Prop51ColorRGB
 90
-16777216
102
RTVSPost2010PropOp51
 70
     0
102
RTVSPost2010Prop52
140
1.0
102
RTVSPost2010PropOp52
 70
     0
102
RTVSPost2010Prop53
 90
        2
102
RTVSPost2010PropOp53
 70
     1
102
RTVSPost2010Prop54
  1
strokes_ogs.tif
102
RTVSPost2010PropOp54
 70
     1
102
RTVSPost2010Prop55
280
     0
102
RTVSPost2010PropOp55
 70
     1
102
RTVSPost2010Prop56
140
1.0
102
RTVSPost2010PropOp56
 70
     1
102
RTVSPost2010Prop57
140
1.0
102
RTVSPost2010PropOp57
 70
     1
  0
XRECORD
  5
383
102
{ACAD_REACTORS
330
382
102
}
330
382
100
AcDbXrecord
280
     1
102
RTVSPropertyOp0
 70
     1
102
RTVSPropertyOp1
 70
     1
102
RTVSPropertyOp2
 70
     1
102
RTVSPropertyOp3
 70
     1
102
RTVSPropertyOp4
 70
     1
102
RTVSPropertyOp5
 70
     1
102
RTVSPropertyOp6
 70
     1
102
RTVSPropertyOp7
 70
     1
102
RTVSPropertyOp8
 70
     1
102
RTVSPropertyOp9
 70
     1
102
RTVSPropertyOp10
 70
     1
102
RTVSPropertyOp11
 70
     1
102
RTVSPropertyOp12
 70
     1
102
RTVSPropertyOp13
 70
     1
102
RTVSPropertyOp14
 70
     1
102
RTVSPropertyOp15
 70
     1
102
RTVSPropertyOp16
 70
     1
102
RTVSPropertyOp17
 70
     1
102
RTVSPropertyOp18
 70
     1
102
RTVSPropertyOp19
 70
     1
102
RTVSPropertyOp20
 70
     1
102
RTVSPropertyOp21
 70
     1
102
RTVSPropertyOp22
 70
     1
102
RTVSPropertyOp23
 70
     1
102
RTVSPropertyOp24
 70
     1
102
RTVSPropertyOp25
 70
     1
102
RTVSPropertyOp26
 70
     1
102
RTVSPropertyOp27
 70
     1
102
RTVSPropertyOp28
 70
     1
102
RTVSPropertyOp29
 70
     1
102
RTVSPropertyOp30
 70
     1
102
RTVSPropertyOp31
 70
     1
102
RTVSPropertyOp32
 70
     1
102
RTVSPropertyOp33
 70
     1
102
RTVSPropertyOp34
 70
     1
102
RTVSPropertyOp35
 70
     1
102
RTVSPropertyOp36
 70
     1
102
RTVSPropertyOp37
 70
     1
102
RTVSPropertyOp38
 70
     1
102
RTVSPropertyOp39
 70
     1
102
RTVSPropertyOp40
 70
     1
102
RTVSPropertyOp41
 70
     1
102
RTVSPropertyOp42
 70
     1
102
RTVSPropertyOp43
 70
     1
102
RTVSPropertyOp44
 70
     1
102
RTVSPropertyOp45
 70
     1
102
RTVSPropertyOp46
 70
     1
102
RTVSPropertyOp47
 70
     1
102
RTVSPropertyOp48
 70
     1
102
RTVSPropertyOp49
 70
     1
102
RTVSPropertyOp50
 70
     1
102
RTVSPropertyOp51
 70
     0
102
RTVSPropertyOp52
 70
     0
102
RTVSPropertyOp53
 70
     1
102
RTVSPropertyOp54
 70
     1
102
RTVSPropertyOp55
 70
     1
102
RTVSPropertyOp56
 70
     1
102
RTVSPropertyOp57
 70
     1
102
RTVSPost2010Prop28
280
     0
102
RTVSPost2010PropOp28
 70
     1
102
RTVSPost2010Prop29
280
     1
102
RTVSPost2010PropOp29
 70
     1
102
RTVSPost2010Prop30
280
     1
102
RTVSPost2010PropOp30
 70
     1
102
RTVSPost2010Prop31
280
     0
102
RTVSPost2010PropOp31
 70
     1
102
RTVSPost2010Prop32
280
     0
102
RTVSPost2010PropOp32
 70
     1
102
RTVSPost2010Prop33
280
     0
102
RTVSPost2010PropOp33
 70
     1
102
RTVSPost2010Prop34
280
     0
102
RTVSPost2010PropOp34
 70
     1
102
RTVSPost2010Prop35
280
     0
102
RTVSPost2010PropOp35
 70
     1
102
RTVSPost2010Prop36
280
     0
102
RTVSPost2010PropOp36
 70
     1
102
RTVSPost2010Prop37
 90
       50
102
RTVSPost2010PropOp37
 70
     1
102
RTVSPost2010Prop38
140
0.0
102
RTVSPost2010PropOp38
 70
     1
102
RTVSPost2010Prop39
140
1.0
102
RTVSPost2010PropOp39
 70
     1
102
RTVSPost2010Prop40
 90
        0
102
RTVSPost2010PropOp40
 70
     1
102
RTVSPost2010Prop41ColorIndex
 90
       18
102
RTVSPost2010Prop41ColorRGB
 90
        0
102
RTVSPost2010PropOp41
 70
     1
102
RTVSPost2010Prop42
 90
       50
102
RTVSPost2010PropOp42
 70
     1
102
RTVSPost2010Prop43
 90
        3
102
RTVSPost2010PropOp43
 70
     1
102
RTVSPost2010Prop44ColorIndex
 90
        5
102
RTVSPost2010Prop44ColorRGB
 90
      255
102
RTVSPost2010PropOp44
 70
     1
102
RTVSPost2010Prop45
280
     0
102
RTVSPost2010PropOp45
 70
     1
102
RTVSPost2010Prop46
 90
       50
102
RTVSPost2010PropOp46
 70
     1
102
RTVSPost2010Prop47
 90
       50
102
RTVSPost2010PropOp47
 70
     1
102
RTVSPost2010Prop48
 90
       50
102
RTVSPost2010PropOp48
 70
     1
102
RTVSPost2010Prop49
280
     0
102
RTVSPost2010PropOp49
 70
     1
102
RTVSPost2010Prop50
 90
       50
102
RTVSPost2010PropOp50
 70
     1
102
RTVSPost2010Prop51ColorIndex
 90
      256
102
RTVSPost2010Prop51ColorRGB
 90
-16777216
102
RTVSPost2010PropOp51
 70
     0
102
RTVSPost2010Prop52
140
1.0
102
RTVSPost2010PropOp52
 70
     0
102
RTVSPost2010Prop53
 90
        2
102
RTVSPost2010PropOp53
 70
     1
102
RTVSPost2010Prop54
  1
strokes_ogs.tif
102
RTVSPost2010PropOp54
 70
     1
102
RTVSPost2010Prop55
280
     0
102
RTVSPost2010PropOp55
 70
     1
102
RTVSPost2010Prop56
140
1.0
102
RTVSPost2010PropOp56
 70
     1
102
RTVSPost2010Prop57
140
1.0
102
RTVSPost2010PropOp57
 70
     1
  0
XRECORD
  5
38B
102
{ACAD_REACTORS
330
38A
102
}
330
38A
100
AcDbXrecord
280
     1
102
RTVSPropertyOp0
 70
     1
102
RTVSPropertyOp1
 70
     1
102
RTVSPropertyOp2
 70
     1
102
RTVSPropertyOp3
 70
     1
102
RTVSPropertyOp4
 70
     1
102
RTVSPropertyOp5
 70
     1
102
RTVSPropertyOp6
 70
     1
102
RTVSPropertyOp7
 70
     1
102
RTVSPropertyOp8
 70
     1
102
RTVSPropertyOp9
 70
     1
102
RTVSPropertyOp10
 70
     1
102
RTVSPropertyOp11
 70
     1
102
RTVSPropertyOp12
 70
     1
102
RTVSPropertyOp13
 70
     1
102
RTVSPropertyOp14
 70
     1
102
RTVSPropertyOp15
 70
     1
102
RTVSPropertyOp16
 70
     1
102
RTVSPropertyOp17
 70
     1
102
RTVSPropertyOp18
 70
     1
102
RTVSPropertyOp19
 70
     1
102
RTVSPropertyOp20
 70
     1
102
RTVSPropertyOp21
 70
     1
102
RTVSPropertyOp22
 70
     1
102
RTVSPropertyOp23
 70
     1
102
RTVSPropertyOp24
 70
     1
102
RTVSPropertyOp25
 70
     1
102
RTVSPropertyOp26
 70
     1
102
RTVSPropertyOp27
 70
     1
102
RTVSPropertyOp28
 70
     1
102
RTVSPropertyOp29
 70
     1
102
RTVSPropertyOp30
 70
     1
102
RTVSPropertyOp31
 70
     1
102
RTVSPropertyOp32
 70
     1
102
RTVSPropertyOp33
 70
     1
102
RTVSPropertyOp34
 70
     1
102
RTVSPropertyOp35
 70
     1
102
RTVSPropertyOp36
 70
     1
102
RTVSPropertyOp37
 70
     1
102
RTVSPropertyOp38
 70
     1
102
RTVSPropertyOp39
 70
     1
102
RTVSPropertyOp40
 70
     1
102
RTVSPropertyOp41
 70
     1
102
RTVSPropertyOp42
 70
     1
102
RTVSPropertyOp43
 70
     1
102
RTVSPropertyOp44
 70
     1
102
RTVSPropertyOp45
 70
     1
102
RTVSPropertyOp46
 70
     1
102
RTVSPropertyOp47
 70
     1
102
RTVSPropertyOp48
 70
     1
102
RTVSPropertyOp49
 70
     1
102
RTVSPropertyOp50
 70
     1
102
RTVSPropertyOp51
 70
     0
102
RTVSPropertyOp52
 70
     0
102
RTVSPropertyOp53
 70
     1
102
RTVSPropertyOp54
 70
     1
102
RTVSPropertyOp55
 70
     1
102
RTVSPropertyOp56
 70
     1
102
RTVSPropertyOp57
 70
     1
102
RTVSPost2010Prop28
280
     0
102
RTVSPost2010PropOp28
 70
     1
102
RTVSPost2010Prop29
280
     1
102
RTVSPost2010PropOp29
 70
     1
102
RTVSPost2010Prop30
280
     1
102
RTVSPost2010PropOp30
 70
     1
102
RTVSPost2010Prop31
280
     0
102
RTVSPost2010PropOp31
 70
     1
102
RTVSPost2010Prop32
280
     0
102
RTVSPost2010PropOp32
 70
     1
102
RTVSPost2010Prop33
280
     0
102
RTVSPost2010PropOp33
 70
     1
102
RTVSPost2010Prop34
280
     0
102
RTVSPost2010PropOp34
 70
     1
102
RTVSPost2010Prop35
280
     0
102
RTVSPost2010PropOp35
 70
     1
102
RTVSPost2010Prop36
280
     0
102
RTVSPost2010PropOp36
 70
     1
102
RTVSPost2010Prop37
 90
       50
102
RTVSPost2010PropOp37
 70
     1
102
RTVSPost2010Prop38
140
0.0
102
RTVSPost2010PropOp38
 70
     1
102
RTVSPost2010Prop39
140
1.0
102
RTVSPost2010PropOp39
 70
     1
102
RTVSPost2010Prop40
 90
        0
102
RTVSPost2010PropOp40
 70
     1
102
RTVSPost2010Prop41ColorIndex
 90
       18
102
RTVSPost2010Prop41ColorRGB
 90
        0
102
RTVSPost2010PropOp41
 70
     1
102
RTVSPost2010Prop42
 90
       50
102
RTVSPost2010PropOp42
 70
     1
102
RTVSPost2010Prop43
 90
        3
102
RTVSPost2010PropOp43
 70
     1
102
RTVSPost2010Prop44ColorIndex
 90
        5
102
RTVSPost2010Prop44ColorRGB
 90
      255
102
RTVSPost2010PropOp44
 70
     1
102
RTVSPost2010Prop45
280
     0
102
RTVSPost2010PropOp45
 70
     1
102
RTVSPost2010Prop46
 90
       50
102
RTVSPost2010PropOp46
 70
     1
102
RTVSPost2010Prop47
 90
       50
102
RTVSPost2010PropOp47
 70
     1
102
RTVSPost2010Prop48
 90
       50
102
RTVSPost2010PropOp48
 70
     1
102
RTVSPost2010Prop49
280
     0
102
RTVSPost2010PropOp49
 70
     1
102
RTVSPost2010Prop50
 90
       50
102
RTVSPost2010PropOp50
 70
     1
102
RTVSPost2010Prop51ColorIndex
 90
      256
102
RTVSPost2010Prop51ColorRGB
 90
-16777216
102
RTVSPost2010PropOp51
 70
     0
102
RTVSPost2010Prop52
140
1.0
102
RTVSPost2010PropOp52
 70
     0
102
RTVSPost2010Prop53
 90
        2
102
RTVSPost2010PropOp53
 70
     1
102
RTVSPost2010Prop54
  1
strokes_ogs.tif
102
RTVSPost2010PropOp54
 70
     1
102
RTVSPost2010Prop55
280
     0
102
RTVSPost2010PropOp55
 70
     1
102
RTVSPost2010Prop56
140
1.0
102
RTVSPost2010PropOp56
 70
     1
102
RTVSPost2010Prop57
140
1.0
102
RTVSPost2010PropOp57
 70
     1
  0
XRECORD
  5
393
102
{ACAD_REACTORS
330
392
102
}
330
392
100
AcDbXrecord
280
     1
102
RTVSPropertyOp0
 70
     1
102
RTVSPropertyOp1
 70
     1
102
RTVSPropertyOp2
 70
     1
102
RTVSPropertyOp3
 70
     1
102
RTVSPropertyOp4
 70
     1
102
RTVSPropertyOp5
 70
     1
102
RTVSPropertyOp6
 70
     1
102
RTVSPropertyOp7
 70
     1
102
RTVSPropertyOp8
 70
     1
102
RTVSPropertyOp9
 70
     1
102
RTVSPropertyOp10
 70
     1
102
RTVSPropertyOp11
 70
     1
102
RTVSPropertyOp12
 70
     1
102
RTVSPropertyOp13
 70
     1
102
RTVSPropertyOp14
 70
     1
102
RTVSPropertyOp15
 70
     1
102
RTVSPropertyOp16
 70
     1
102
RTVSPropertyOp17
 70
     1
102
RTVSPropertyOp18
 70
     1
102
RTVSPropertyOp19
 70
     1
102
RTVSPropertyOp20
 70
     1
102
RTVSPropertyOp21
 70
     1
102
RTVSPropertyOp22
 70
     1
102
RTVSPropertyOp23
 70
     1
102
RTVSPropertyOp24
 70
     1
102
RTVSPropertyOp25
 70
     1
102
RTVSPropertyOp26
 70
     1
102
RTVSPropertyOp27
 70
     1
102
RTVSPropertyOp28
 70
     1
102
RTVSPropertyOp29
 70
     1
102
RTVSPropertyOp30
 70
     1
102
RTVSPropertyOp31
 70
     1
102
RTVSPropertyOp32
 70
     1
102
RTVSPropertyOp33
 70
     1
102
RTVSPropertyOp34
 70
     1
102
RTVSPropertyOp35
 70
     1
102
RTVSPropertyOp36
 70
     1
102
RTVSPropertyOp37
 70
     1
102
RTVSPropertyOp38
 70
     1
102
RTVSPropertyOp39
 70
     1
102
RTVSPropertyOp40
 70
     1
102
RTVSPropertyOp41
 70
     1
102
RTVSPropertyOp42
 70
     1
102
RTVSPropertyOp43
 70
     1
102
RTVSPropertyOp44
 70
     1
102
RTVSPropertyOp45
 70
     1
102
RTVSPropertyOp46
 70
     1
102
RTVSPropertyOp47
 70
     1
102
RTVSPropertyOp48
 70
     1
102
RTVSPropertyOp49
 70
     1
102
RTVSPropertyOp50
 70
     1
102
RTVSPropertyOp51
 70
     0
102
RTVSPropertyOp52
 70
     0
102
RTVSPropertyOp53
 70
     1
102
RTVSPropertyOp54
 70
     1
102
RTVSPropertyOp55
 70
     1
102
RTVSPropertyOp56
 70
     1
102
RTVSPropertyOp57
 70
     1
102
RTVSPost2010Prop28
280
     0
102
RTVSPost2010PropOp28
 70
     1
102
RTVSPost2010Prop29
280
     1
102
RTVSPost2010PropOp29
 70
     1
102
RTVSPost2010Prop30
280
     1
102
RTVSPost2010PropOp30
 70
     1
102
RTVSPost2010Prop31
280
     0
102
RTVSPost2010PropOp31
 70
     1
102
RTVSPost2010Prop32
280
     0
102
RTVSPost2010PropOp32
 70
     1
102
RTVSPost2010Prop33
280
     0
102
RTVSPost2010PropOp33
 70
     1
102
RTVSPost2010Prop34
280
     0
102
RTVSPost2010PropOp34
 70
     1
102
RTVSPost2010Prop35
280
     0
102
RTVSPost2010PropOp35
 70
     1
102
RTVSPost2010Prop36
280
     0
102
RTVSPost2010PropOp36
 70
     1
102
RTVSPost2010Prop37
 90
       50
102
RTVSPost2010PropOp37
 70
     1
102
RTVSPost2010Prop38
140
0.0
102
RTVSPost2010PropOp38
 70
     1
102
RTVSPost2010Prop39
140
1.0
102
RTVSPost2010PropOp39
 70
     1
102
RTVSPost2010Prop40
 90
        0
102
RTVSPost2010PropOp40
 70
     1
102
RTVSPost2010Prop41ColorIndex
 90
       18
102
RTVSPost2010Prop41ColorRGB
 90
        0
102
RTVSPost2010PropOp41
 70
     1
102
RTVSPost2010Prop42
 90
       50
102
RTVSPost2010PropOp42
 70
     1
102
RTVSPost2010Prop43
 90
        3
102
RTVSPost2010PropOp43
 70
     1
102
RTVSPost2010Prop44ColorIndex
 90
        5
102
RTVSPost2010Prop44ColorRGB
 90
      255
102
RTVSPost2010PropOp44
 70
     1
102
RTVSPost2010Prop45
280
     0
102
RTVSPost2010PropOp45
 70
     1
102
RTVSPost2010Prop46
 90
       50
102
RTVSPost2010PropOp46
 70
     1
102
RTVSPost2010Prop47
 90
       50
102
RTVSPost2010PropOp47
 70
     1
102
RTVSPost2010Prop48
 90
       50
102
RTVSPost2010PropOp48
 70
     1
102
RTVSPost2010Prop49
280
     0
102
RTVSPost2010PropOp49
 70
     1
102
RTVSPost2010Prop50
 90
       50
102
RTVSPost2010PropOp50
 70
     1
102
RTVSPost2010Prop51ColorIndex
 90
      256
102
RTVSPost2010Prop51ColorRGB
 90
-16777216
102
RTVSPost2010PropOp51
 70
     0
102
RTVSPost2010Prop52
140
1.0
102
RTVSPost2010PropOp52
 70
     0
102
RTVSPost2010Prop53
 90
        2
102
RTVSPost2010PropOp53
 70
     1
102
RTVSPost2010Prop54
  1
strokes_ogs.tif
102
RTVSPost2010PropOp54
 70
     1
102
RTVSPost2010Prop55
280
     0
102
RTVSPost2010PropOp55
 70
     1
102
RTVSPost2010Prop56
140
1.0
102
RTVSPost2010PropOp56
 70
     1
102
RTVSPost2010Prop57
140
1.0
102
RTVSPost2010PropOp57
 70
     1
  0
XRECORD
  5
387
102
{ACAD_REACTORS
330
386
102
}
330
386
100
AcDbXrecord
280
     1
102
RTVSPropertyOp0
 70
     1
102
RTVSPropertyOp1
 70
     1
102
RTVSPropertyOp2
 70
     1
102
RTVSPropertyOp3
 70
     1
102
RTVSPropertyOp4
 70
     1
102
RTVSPropertyOp5
 70
     1
102
RTVSPropertyOp6
 70
     1
102
RTVSPropertyOp7
 70
     1
102
RTVSPropertyOp8
 70
     1
102
RTVSPropertyOp9
 70
     1
102
RTVSPropertyOp10
 70
     1
102
RTVSPropertyOp11
 70
     1
102
RTVSPropertyOp12
 70
     1
102
RTVSPropertyOp13
 70
     1
102
RTVSPropertyOp14
 70
     1
102
RTVSPropertyOp15
 70
     1
102
RTVSPropertyOp16
 70
     1
102
RTVSPropertyOp17
 70
     1
102
RTVSPropertyOp18
 70
     1
102
RTVSPropertyOp19
 70
     1
102
RTVSPropertyOp20
 70
     1
102
RTVSPropertyOp21
 70
     1
102
RTVSPropertyOp22
 70
     1
102
RTVSPropertyOp23
 70
     1
102
RTVSPropertyOp24
 70
     1
102
RTVSPropertyOp25
 70
     1
102
RTVSPropertyOp26
 70
     1
102
RTVSPropertyOp27
 70
     1
102
RTVSPropertyOp28
 70
     1
102
RTVSPropertyOp29
 70
     1
102
RTVSPropertyOp30
 70
     1
102
RTVSPropertyOp31
 70
     1
102
RTVSPropertyOp32
 70
     1
102
RTVSPropertyOp33
 70
     1
102
RTVSPropertyOp34
 70
     1
102
RTVSPropertyOp35
 70
     1
102
RTVSPropertyOp36
 70
     1
102
RTVSPropertyOp37
 70
     1
102
RTVSPropertyOp38
 70
     1
102
RTVSPropertyOp39
 70
     1
102
RTVSPropertyOp40
 70
     1
102
RTVSPropertyOp41
 70
     1
102
RTVSPropertyOp42
 70
     1
102
RTVSPropertyOp43
 70
     1
102
RTVSPropertyOp44
 70
     1
102
RTVSPropertyOp45
 70
     1
102
RTVSPropertyOp46
 70
     1
102
RTVSPropertyOp47
 70
     1
102
RTVSPropertyOp48
 70
     1
102
RTVSPropertyOp49
 70
     1
102
RTVSPropertyOp50
 70
     1
102
RTVSPropertyOp51
 70
     0
102
RTVSPropertyOp52
 70
     0
102
RTVSPropertyOp53
 70
     1
102
RTVSPropertyOp54
 70
     1
102
RTVSPropertyOp55
 70
     1
102
RTVSPropertyOp56
 70
     1
102
RTVSPropertyOp57
 70
     1
102
RTVSPost2010Prop28
280
     0
102
RTVSPost2010PropOp28
 70
     1
102
RTVSPost2010Prop29
280
     1
102
RTVSPost2010PropOp29
 70
     1
102
RTVSPost2010Prop30
280
     1
102
RTVSPost2010PropOp30
 70
     1
102
RTVSPost2010Prop31
280
     0
102
RTVSPost2010PropOp31
 70
     1
102
RTVSPost2010Prop32
280
     0
102
RTVSPost2010PropOp32
 70
     1
102
RTVSPost2010Prop33
280
     0
102
RTVSPost2010PropOp33
 70
     1
102
RTVSPost2010Prop34
280
     0
102
RTVSPost2010PropOp34
 70
     1
102
RTVSPost2010Prop35
280
     0
102
RTVSPost2010PropOp35
 70
     1
102
RTVSPost2010Prop36
280
     0
102
RTVSPost2010PropOp36
 70
     1
102
RTVSPost2010Prop37
 90
       50
102
RTVSPost2010PropOp37
 70
     1
102
RTVSPost2010Prop38
140
0.0
102
RTVSPost2010PropOp38
 70
     1
102
RTVSPost2010Prop39
140
1.0
102
RTVSPost2010PropOp39
 70
     1
102
RTVSPost2010Prop40
 90
        0
102
RTVSPost2010PropOp40
 70
     1
102
RTVSPost2010Prop41ColorIndex
 90
       18
102
RTVSPost2010Prop41ColorRGB
 90
        0
102
RTVSPost2010PropOp41
 70
     1
102
RTVSPost2010Prop42
 90
       50
102
RTVSPost2010PropOp42
 70
     1
102
RTVSPost2010Prop43
 90
        3
102
RTVSPost2010PropOp43
 70
     1
102
RTVSPost2010Prop44ColorIndex
 90
        5
102
RTVSPost2010Prop44ColorRGB
 90
      255
102
RTVSPost2010PropOp44
 70
     1
102
RTVSPost2010Prop45
280
     0
102
RTVSPost2010PropOp45
 70
     1
102
RTVSPost2010Prop46
 90
       50
102
RTVSPost2010PropOp46
 70
     1
102
RTVSPost2010Prop47
 90
       50
102
RTVSPost2010PropOp47
 70
     1
102
RTVSPost2010Prop48
 90
       50
102
RTVSPost2010PropOp48
 70
     1
102
RTVSPost2010Prop49
280
     0
102
RTVSPost2010PropOp49
 70
     1
102
RTVSPost2010Prop50
 90
       50
102
RTVSPost2010PropOp50
 70
     1
102
RTVSPost2010Prop51ColorIndex
 90
      256
102
RTVSPost2010Prop51ColorRGB
 90
-16777216
102
RTVSPost2010PropOp51
 70
     0
102
RTVSPost2010Prop52
140
1.0
102
RTVSPost2010PropOp52
 70
     0
102
RTVSPost2010Prop53
 90
        2
102
RTVSPost2010PropOp53
 70
     1
102
RTVSPost2010Prop54
  1
strokes_ogs.tif
102
RTVSPost2010PropOp54
 70
     1
102
RTVSPost2010Prop55
280
     0
102
RTVSPost2010PropOp55
 70
     1
102
RTVSPost2010Prop56
140
1.0
102
RTVSPost2010PropOp56
 70
     1
102
RTVSPost2010Prop57
140
1.0
102
RTVSPost2010PropOp57
 70
     1
  0
XRECORD
  5
389
102
{ACAD_REACTORS
330
388
102
}
330
388
100
AcDbXrecord
280
     1
102
RTVSPropertyOp0
 70
     1
102
RTVSPropertyOp1
 70
     1
102
RTVSPropertyOp2
 70
     1
102
RTVSPropertyOp3
 70
     1
102
RTVSPropertyOp4
 70
     1
102
RTVSPropertyOp5
 70
     1
102
RTVSPropertyOp6
 70
     1
102
RTVSPropertyOp7
 70
     1
102
RTVSPropertyOp8
 70
     1
102
RTVSPropertyOp9
 70
     1
102
RTVSPropertyOp10
 70
     1
102
RTVSPropertyOp11
 70
     1
102
RTVSPropertyOp12
 70
     1
102
RTVSPropertyOp13
 70
     1
102
RTVSPropertyOp14
 70
     1
102
RTVSPropertyOp15
 70
     1
102
RTVSPropertyOp16
 70
     1
102
RTVSPropertyOp17
 70
     1
102
RTVSPropertyOp18
 70
     1
102
RTVSPropertyOp19
 70
     1
102
RTVSPropertyOp20
 70
     1
102
RTVSPropertyOp21
 70
     1
102
RTVSPropertyOp22
 70
     1
102
RTVSPropertyOp23
 70
     1
102
RTVSPropertyOp24
 70
     1
102
RTVSPropertyOp25
 70
     1
102
RTVSPropertyOp26
 70
     1
102
RTVSPropertyOp27
 70
     1
102
RTVSPropertyOp28
 70
     1
102
RTVSPropertyOp29
 70
     1
102
RTVSPropertyOp30
 70
     1
102
RTVSPropertyOp31
 70
     1
102
RTVSPropertyOp32
 70
     1
102
RTVSPropertyOp33
 70
     1
102
RTVSPropertyOp34
 70
     1
102
RTVSPropertyOp35
 70
     1
102
RTVSPropertyOp36
 70
     1
102
RTVSPropertyOp37
 70
     1
102
RTVSPropertyOp38
 70
     1
102
RTVSPropertyOp39
 70
     1
102
RTVSPropertyOp40
 70
     1
102
RTVSPropertyOp41
 70
     1
102
RTVSPropertyOp42
 70
     1
102
RTVSPropertyOp43
 70
     1
102
RTVSPropertyOp44
 70
     1
102
RTVSPropertyOp45
 70
     1
102
RTVSPropertyOp46
 70
     1
102
RTVSPropertyOp47
 70
     1
102
RTVSPropertyOp48
 70
     1
102
RTVSPropertyOp49
 70
     1
102
RTVSPropertyOp50
 70
     1
102
RTVSPropertyOp51
 70
     0
102
RTVSPropertyOp52
 70
     0
102
RTVSPropertyOp53
 70
     1
102
RTVSPropertyOp54
 70
     1
102
RTVSPropertyOp55
 70
     1
102
RTVSPropertyOp56
 70
     1
102
RTVSPropertyOp57
 70
     1
102
RTVSPost2010Prop28
280
     0
102
RTVSPost2010PropOp28
 70
     1
102
RTVSPost2010Prop29
280
     1
102
RTVSPost2010PropOp29
 70
     1
102
RTVSPost2010Prop30
280
     1
102
RTVSPost2010PropOp30
 70
     1
102
RTVSPost2010Prop31
280
     0
102
RTVSPost2010PropOp31
 70
     1
102
RTVSPost2010Prop32
280
     0
102
RTVSPost2010PropOp32
 70
     1
102
RTVSPost2010Prop33
280
     0
102
RTVSPost2010PropOp33
 70
     1
102
RTVSPost2010Prop34
280
     0
102
RTVSPost2010PropOp34
 70
     1
102
RTVSPost2010Prop35
280
     0
102
RTVSPost2010PropOp35
 70
     1
102
RTVSPost2010Prop36
280
     0
102
RTVSPost2010PropOp36
 70
     1
102
RTVSPost2010Prop37
 90
       50
102
RTVSPost2010PropOp37
 70
     1
102
RTVSPost2010Prop38
140
0.0
102
RTVSPost2010PropOp38
 70
     1
102
RTVSPost2010Prop39
140
1.0
102
RTVSPost2010PropOp39
 70
     1
102
RTVSPost2010Prop40
 90
        0
102
RTVSPost2010PropOp40
 70
     1
102
RTVSPost2010Prop41ColorIndex
 90
       18
102
RTVSPost2010Prop41ColorRGB
 90
        0
102
RTVSPost2010PropOp41
 70
     1
102
RTVSPost2010Prop42
 90
       50
102
RTVSPost2010PropOp42
 70
     1
102
RTVSPost2010Prop43
 90
        3
102
RTVSPost2010PropOp43
 70
     1
102
RTVSPost2010Prop44ColorIndex
 90
        5
102
RTVSPost2010Prop44ColorRGB
 90
      255
102
RTVSPost2010PropOp44
 70
     1
102
RTVSPost2010Prop45
280
     0
102
RTVSPost2010PropOp45
 70
     1
102
RTVSPost2010Prop46
 90
       50
102
RTVSPost2010PropOp46
 70
     1
102
RTVSPost2010Prop47
 90
       50
102
RTVSPost2010PropOp47
 70
     1
102
RTVSPost2010Prop48
 90
       50
102
RTVSPost2010PropOp48
 70
     1
102
RTVSPost2010Prop49
280
     0
102
RTVSPost2010PropOp49
 70
     1
102
RTVSPost2010Prop50
 90
       50
102
RTVSPost2010PropOp50
 70
     1
102
RTVSPost2010Prop51ColorIndex
 90
      256
102
RTVSPost2010Prop51ColorRGB
 90
-16777216
102
RTVSPost2010PropOp51
 70
     0
102
RTVSPost2010Prop52
140
1.0
102
RTVSPost2010PropOp52
 70
     0
102
RTVSPost2010Prop53
 90
        2
102
RTVSPost2010PropOp53
 70
     1
102
RTVSPost2010Prop54
  1
strokes_ogs.tif
102
RTVSPost2010PropOp54
 70
     1
102
RTVSPost2010Prop55
280
     0
102
RTVSPost2010PropOp55
 70
     1
102
RTVSPost2010Prop56
140
1.0
102
RTVSPost2010PropOp56
 70
     1
102
RTVSPost2010Prop57
140
1.0
102
RTVSPost2010PropOp57
 70
     1
  0
XRECORD
  5
399
102
{ACAD_REACTORS
330
398
102
}
330
398
100
AcDbXrecord
280
     1
102
RTVSPropertyOp0
 70
     0
102
RTVSPropertyOp1
 70
     0
102
RTVSPropertyOp2
 70
     0
102
RTVSPropertyOp3
 70
     0
102
RTVSPropertyOp4
 70
     0
102
RTVSPropertyOp5
 70
     0
102
RTVSPropertyOp6
 70
     0
102
RTVSPropertyOp7
 70
     0
102
RTVSPropertyOp8
 70
     0
102
RTVSPropertyOp9
 70
     0
102
RTVSPropertyOp10
 70
     0
102
RTVSPropertyOp11
 70
     0
102
RTVSPropertyOp12
 70
     0
102
RTVSPropertyOp13
 70
     0
102
RTVSPropertyOp14
 70
     2
102
RTVSPropertyOp15
 70
     0
102
RTVSPropertyOp16
 70
     0
102
RTVSPropertyOp17
 70
     0
102
RTVSPropertyOp18
 70
     0
102
RTVSPropertyOp19
 70
     0
102
RTVSPropertyOp20
 70
     0
102
RTVSPropertyOp21
 70
     0
102
RTVSPropertyOp22
 70
     0
102
RTVSPropertyOp23
 70
     0
102
RTVSPropertyOp24
 70
     0
102
RTVSPropertyOp25
 70
     0
102
RTVSPropertyOp26
 70
     0
102
RTVSPropertyOp27
 70
     0
102
RTVSPropertyOp28
 70
     0
102
RTVSPropertyOp29
 70
     0
102
RTVSPropertyOp30
 70
     0
102
RTVSPropertyOp31
 70
     0
102
RTVSPropertyOp32
 70
     0
102
RTVSPropertyOp33
 70
     0
102
RTVSPropertyOp34
 70
     0
102
RTVSPropertyOp35
 70
     0
102
RTVSPropertyOp36
 70
     0
102
RTVSPropertyOp37
 70
     0
102
RTVSPropertyOp38
 70
     0
102
RTVSPropertyOp39
 70
     0
102
RTVSPropertyOp40
 70
     0
102
RTVSPropertyOp41
 70
     0
102
RTVSPropertyOp42
 70
     0
102
RTVSPropertyOp43
 70
     0
102
RTVSPropertyOp44
 70
     0
102
RTVSPropertyOp45
 70
     0
102
RTVSPropertyOp46
 70
     0
102
RTVSPropertyOp47
 70
     0
102
RTVSPropertyOp48
 70
     0
102
RTVSPropertyOp49
 70
     0
102
RTVSPropertyOp50
 70
     0
102
RTVSPropertyOp51
 70
     0
102
RTVSPropertyOp52
 70
     0
102
RTVSPropertyOp53
 70
     0
102
RTVSPropertyOp54
 70
     0
102
RTVSPropertyOp55
 70
     0
102
RTVSPropertyOp56
 70
     0
102
RTVSPropertyOp57
 70
     0
102
RTVSPost2010Prop28
280
     0
102
RTVSPost2010PropOp28
 70
     0
102
RTVSPost2010Prop29
280
     1
102
RTVSPost2010PropOp29
 70
     0
102
RTVSPost2010Prop30
280
     1
102
RTVSPost2010PropOp30
 70
     0
102
RTVSPost2010Prop31
280
     0
102
RTVSPost2010PropOp31
 70
     0
102
RTVSPost2010Prop32
280
     0
102
RTVSPost2010PropOp32
 70
     0
102
RTVSPost2010Prop33
280
     0
102
RTVSPost2010PropOp33
 70
     0
102
RTVSPost2010Prop34
280
     0
102
RTVSPost2010PropOp34
 70
     0
102
RTVSPost2010Prop35
280
     0
102
RTVSPost2010PropOp35
 70
     0
102
RTVSPost2010Prop36
280
     0
102
RTVSPost2010PropOp36
 70
     0
102
RTVSPost2010Prop37
 90
       50
102
RTVSPost2010PropOp37
 70
     0
102
RTVSPost2010Prop38
140
0.0
102
RTVSPost2010PropOp38
 70
     0
102
RTVSPost2010Prop39
140
1.0
102
RTVSPost2010PropOp39
 70
     0
102
RTVSPost2010Prop40
 90
        0
102
RTVSPost2010PropOp40
 70
     0
102
RTVSPost2010Prop41ColorIndex
 90
       18
102
RTVSPost2010Prop41ColorRGB
 90
        0
102
RTVSPost2010PropOp41
 70
     0
102
RTVSPost2010Prop42
 90
       50
102
RTVSPost2010PropOp42
 70
     0
102
RTVSPost2010Prop43
 90
        3
102
RTVSPost2010PropOp43
 70
     0
102
RTVSPost2010Prop44ColorIndex
 90
        5
102
RTVSPost2010Prop44ColorRGB
 90
      255
102
RTVSPost2010PropOp44
 70
     0
102
RTVSPost2010Prop45
280
     0
102
RTVSPost2010PropOp45
 70
     0
102
RTVSPost2010Prop46
 90
       50
102
RTVSPost2010PropOp46
 70
     0
102
RTVSPost2010Prop47
 90
       50
102
RTVSPost2010PropOp47
 70
     0
102
RTVSPost2010Prop48
 90
       50
102
RTVSPost2010PropOp48
 70
     0
102
RTVSPost2010Prop49
280
     0
102
RTVSPost2010PropOp49
 70
     0
102
RTVSPost2010Prop50
 90
       50
102
RTVSPost2010PropOp50
 70
     0
102
RTVSPost2010Prop51ColorIndex
 90
      256
102
RTVSPost2010Prop51ColorRGB
 90
-16777216
102
RTVSPost2010PropOp51
 70
     0
102
RTVSPost2010Prop52
140
1.0
102
RTVSPost2010PropOp52
 70
     0
102
RTVSPost2010Prop53
 90
        2
102
RTVSPost2010PropOp53
 70
     0
102
RTVSPost2010Prop54
  1
strokes_ogs.tif
102
RTVSPost2010PropOp54
 70
     0
102
RTVSPost2010Prop55
280
     0
102
RTVSPost2010PropOp55
 70
     0
102
RTVSPost2010Prop56
140
1.0
102
RTVSPost2010PropOp56
 70
     0
102
RTVSPost2010Prop57
140
1.0
102
RTVSPost2010PropOp57
 70
     0
  0
XRECORD
  5
391
102
{ACAD_REACTORS
330
390
102
}
330
390
100
AcDbXrecord
280
     1
102
RTVSPropertyOp0
 70
     1
102
RTVSPropertyOp1
 70
     1
102
RTVSPropertyOp2
 70
     1
102
RTVSPropertyOp3
 70
     1
102
RTVSPropertyOp4
 70
     1
102
RTVSPropertyOp5
 70
     1
102
RTVSPropertyOp6
 70
     1
102
RTVSPropertyOp7
 70
     1
102
RTVSPropertyOp8
 70
     1
102
RTVSPropertyOp9
 70
     1
102
RTVSPropertyOp10
 70
     1
102
RTVSPropertyOp11
 70
     1
102
RTVSPropertyOp12
 70
     1
102
RTVSPropertyOp13
 70
     1
102
RTVSPropertyOp14
 70
     1
102
RTVSPropertyOp15
 70
     1
102
RTVSPropertyOp16
 70
     1
102
RTVSPropertyOp17
 70
     1
102
RTVSPropertyOp18
 70
     1
102
RTVSPropertyOp19
 70
     1
102
RTVSPropertyOp20
 70
     1
102
RTVSPropertyOp21
 70
     1
102
RTVSPropertyOp22
 70
     1
102
RTVSPropertyOp23
 70
     1
102
RTVSPropertyOp24
 70
     1
102
RTVSPropertyOp25
 70
     1
102
RTVSPropertyOp26
 70
     1
102
RTVSPropertyOp27
 70
     1
102
RTVSPropertyOp28
 70
     1
102
RTVSPropertyOp29
 70
     1
102
RTVSPropertyOp30
 70
     1
102
RTVSPropertyOp31
 70
     1
102
RTVSPropertyOp32
 70
     1
102
RTVSPropertyOp33
 70
     1
102
RTVSPropertyOp34
 70
     1
102
RTVSPropertyOp35
 70
     1
102
RTVSPropertyOp36
 70
     1
102
RTVSPropertyOp37
 70
     1
102
RTVSPropertyOp38
 70
     1
102
RTVSPropertyOp39
 70
     1
102
RTVSPropertyOp40
 70
     1
102
RTVSPropertyOp41
 70
     1
102
RTVSPropertyOp42
 70
     1
102
RTVSPropertyOp43
 70
     1
102
RTVSPropertyOp44
 70
     1
102
RTVSPropertyOp45
 70
     1
102
RTVSPropertyOp46
 70
     1
102
RTVSPropertyOp47
 70
     1
102
RTVSPropertyOp48
 70
     1
102
RTVSPropertyOp49
 70
     1
102
RTVSPropertyOp50
 70
     1
102
RTVSPropertyOp51
 70
     0
102
RTVSPropertyOp52
 70
     0
102
RTVSPropertyOp53
 70
     1
102
RTVSPropertyOp54
 70
     1
102
RTVSPropertyOp55
 70
     1
102
RTVSPropertyOp56
 70
     1
102
RTVSPropertyOp57
 70
     1
102
RTVSPost2010Prop28
280
     0
102
RTVSPost2010PropOp28
 70
     1
102
RTVSPost2010Prop29
280
     1
102
RTVSPost2010PropOp29
 70
     1
102
RTVSPost2010Prop30
280
     1
102
RTVSPost2010PropOp30
 70
     1
102
RTVSPost2010Prop31
280
     0
102
RTVSPost2010PropOp31
 70
     1
102
RTVSPost2010Prop32
280
     0
102
RTVSPost2010PropOp32
 70
     1
102
RTVSPost2010Prop33
280
     0
102
RTVSPost2010PropOp33
 70
     1
102
RTVSPost2010Prop34
280
     0
102
RTVSPost2010PropOp34
 70
     1
102
RTVSPost2010Prop35
280
     0
102
RTVSPost2010PropOp35
 70
     1
102
RTVSPost2010Prop36
280
     0
102
RTVSPost2010PropOp36
 70
     1
102
RTVSPost2010Prop37
 90
       50
102
RTVSPost2010PropOp37
 70
     1
102
RTVSPost2010Prop38
140
0.0
102
RTVSPost2010PropOp38
 70
     1
102
RTVSPost2010Prop39
140
1.0
102
RTVSPost2010PropOp39
 70
     1
102
RTVSPost2010Prop40
 90
        0
102
RTVSPost2010PropOp40
 70
     1
102
RTVSPost2010Prop41ColorIndex
 90
       18
102
RTVSPost2010Prop41ColorRGB
 90
        0
102
RTVSPost2010PropOp41
 70
     1
102
RTVSPost2010Prop42
 90
       50
102
RTVSPost2010PropOp42
 70
     1
102
RTVSPost2010Prop43
 90
        3
102
RTVSPost2010PropOp43
 70
     1
102
RTVSPost2010Prop44ColorIndex
 90
        5
102
RTVSPost2010Prop44ColorRGB
 90
      255
102
RTVSPost2010PropOp44
 70
     1
102
RTVSPost2010Prop45
280
     0
102
RTVSPost2010PropOp45
 70
     1
102
RTVSPost2010Prop46
 90
       50
102
RTVSPost2010PropOp46
 70
     1
102
RTVSPost2010Prop47
 90
       50
102
RTVSPost2010PropOp47
 70
     1
102
RTVSPost2010Prop48
 90
       50
102
RTVSPost2010PropOp48
 70
     1
102
RTVSPost2010Prop49
280
     0
102
RTVSPost2010PropOp49
 70
     1
102
RTVSPost2010Prop50
 90
       50
102
RTVSPost2010PropOp50
 70
     1
102
RTVSPost2010Prop51ColorIndex
 90
      256
102
RTVSPost2010Prop51ColorRGB
 90
-16777216
102
RTVSPost2010PropOp51
 70
     0
102
RTVSPost2010Prop52
140
1.0
102
RTVSPost2010PropOp52
 70
     0
102
RTVSPost2010Prop53
 90
        2
102
RTVSPost2010PropOp53
 70
     1
102
RTVSPost2010Prop54
  1
strokes_ogs.tif
102
RTVSPost2010PropOp54
 70
     1
102
RTVSPost2010Prop55
280
     0
102
RTVSPost2010PropOp55
 70
     1
102
RTVSPost2010Prop56
140
1.0
102
RTVSPost2010PropOp56
 70
     1
102
RTVSPost2010Prop57
140
1.0
102
RTVSPost2010PropOp57
 70
     1
  0
XRECORD
  5
375
102
{ACAD_REACTORS
330
374
102
}
330
374
100
AcDbXrecord
280
     1
102
RTVSPropertyOp0
 70
     1
102
RTVSPropertyOp1
 70
     1
102
RTVSPropertyOp2
 70
     1
102
RTVSPropertyOp3
 70
     1
102
RTVSPropertyOp4
 70
     1
102
RTVSPropertyOp5
 70
     1
102
RTVSPropertyOp6
 70
     1
102
RTVSPropertyOp7
 70
     1
102
RTVSPropertyOp8
 70
     1
102
RTVSPropertyOp9
 70
     1
102
RTVSPropertyOp10
 70
     1
102
RTVSPropertyOp11
 70
     1
102
RTVSPropertyOp12
 70
     1
102
RTVSPropertyOp13
 70
     1
102
RTVSPropertyOp14
 70
     1
102
RTVSPropertyOp15
 70
     1
102
RTVSPropertyOp16
 70
     1
102
RTVSPropertyOp17
 70
     1
102
RTVSPropertyOp18
 70
     1
102
RTVSPropertyOp19
 70
     1
102
RTVSPropertyOp20
 70
     1
102
RTVSPropertyOp21
 70
     1
102
RTVSPropertyOp22
 70
     1
102
RTVSPropertyOp23
 70
     1
102
RTVSPropertyOp24
 70
     1
102
RTVSPropertyOp25
 70
     1
102
RTVSPropertyOp26
 70
     1
102
RTVSPropertyOp27
 70
     1
102
RTVSPropertyOp28
 70
     1
102
RTVSPropertyOp29
 70
     1
102
RTVSPropertyOp30
 70
     1
102
RTVSPropertyOp31
 70
     1
102
RTVSPropertyOp32
 70
     1
102
RTVSPropertyOp33
 70
     1
102
RTVSPropertyOp34
 70
     1
102
RTVSPropertyOp35
 70
     1
102
RTVSPropertyOp36
 70
     1
102
RTVSPropertyOp37
 70
     1
102
RTVSPropertyOp38
 70
     1
102
RTVSPropertyOp39
 70
     1
102
RTVSPropertyOp40
 70
     1
102
RTVSPropertyOp41
 70
     1
102
RTVSPropertyOp42
 70
     1
102
RTVSPropertyOp43
 70
     1
102
RTVSPropertyOp44
 70
     1
102
RTVSPropertyOp45
 70
     1
102
RTVSPropertyOp46
 70
     1
102
RTVSPropertyOp47
 70
     1
102
RTVSPropertyOp48
 70
     1
102
RTVSPropertyOp49
 70
     1
102
RTVSPropertyOp50
 70
     1
102
RTVSPropertyOp51
 70
     0
102
RTVSPropertyOp52
 70
     0
102
RTVSPropertyOp53
 70
     1
102
RTVSPropertyOp54
 70
     1
102
RTVSPropertyOp55
 70
     1
102
RTVSPropertyOp56
 70
     1
102
RTVSPropertyOp57
 70
     1
102
RTVSPost2010Prop28
280
     0
102
RTVSPost2010PropOp28
 70
     1
102
RTVSPost2010Prop29
280
     1
102
RTVSPost2010PropOp29
 70
     1
102
RTVSPost2010Prop30
280
     1
102
RTVSPost2010PropOp30
 70
     1
102
RTVSPost2010Prop31
280
     0
102
RTVSPost2010PropOp31
 70
     1
102
RTVSPost2010Prop32
280
     0
102
RTVSPost2010PropOp32
 70
     1
102
RTVSPost2010Prop33
280
     0
102
RTVSPost2010PropOp33
 70
     1
102
RTVSPost2010Prop34
280
     0
102
RTVSPost2010PropOp34
 70
     1
102
RTVSPost2010Prop35
280
     0
102
RTVSPost2010PropOp35
 70
     1
102
RTVSPost2010Prop36
280
     0
102
RTVSPost2010PropOp36
 70
     1
102
RTVSPost2010Prop37
 90
       50
102
RTVSPost2010PropOp37
 70
     1
102
RTVSPost2010Prop38
140
0.0
102
RTVSPost2010PropOp38
 70
     1
102
RTVSPost2010Prop39
140
1.0
102
RTVSPost2010PropOp39
 70
     1
102
RTVSPost2010Prop40
 90
        0
102
RTVSPost2010PropOp40
 70
     1
102
RTVSPost2010Prop41ColorIndex
 90
       18
102
RTVSPost2010Prop41ColorRGB
 90
        0
102
RTVSPost2010PropOp41
 70
     1
102
RTVSPost2010Prop42
 90
       50
102
RTVSPost2010PropOp42
 70
     1
102
RTVSPost2010Prop43
 90
        3
102
RTVSPost2010PropOp43
 70
     1
102
RTVSPost2010Prop44ColorIndex
 90
        5
102
RTVSPost2010Prop44ColorRGB
 90
      255
102
RTVSPost2010PropOp44
 70
     1
102
RTVSPost2010Prop45
280
     0
102
RTVSPost2010PropOp45
 70
     1
102
RTVSPost2010Prop46
 90
       50
102
RTVSPost2010PropOp46
 70
     1
102
RTVSPost2010Prop47
 90
       50
102
RTVSPost2010PropOp47
 70
     1
102
RTVSPost2010Prop48
 90
       50
102
RTVSPost2010PropOp48
 70
     1
102
RTVSPost2010Prop49
280
     0
102
RTVSPost2010PropOp49
 70
     1
102
RTVSPost2010Prop50
 90
       50
102
RTVSPost2010PropOp50
 70
     1
102
RTVSPost2010Prop51ColorIndex
 90
      256
102
RTVSPost2010Prop51ColorRGB
 90
-16777216
102
RTVSPost2010PropOp51
 70
     0
102
RTVSPost2010Prop52
140
1.0
102
RTVSPost2010PropOp52
 70
     0
102
RTVSPost2010Prop53
 90
        2
102
RTVSPost2010PropOp53
 70
     1
102
RTVSPost2010Prop54
  1
strokes_ogs.tif
102
RTVSPost2010PropOp54
 70
     1
102
RTVSPost2010Prop55
280
     0
102
RTVSPost2010PropOp55
 70
     1
102
RTVSPost2010Prop56
140
1.0
102
RTVSPost2010PropOp56
 70
     1
102
RTVSPost2010Prop57
140
1.0
102
RTVSPost2010PropOp57
 70
     1
  0
XRECORD
  5
377
102
{ACAD_REACTORS
330
376
102
}
330
376
100
AcDbXrecord
280
     1
102
RTVSPropertyOp0
 70
     1
102
RTVSPropertyOp1
 70
     1
102
RTVSPropertyOp2
 70
     1
102
RTVSPropertyOp3
 70
     1
102
RTVSPropertyOp4
 70
     1
102
RTVSPropertyOp5
 70
     1
102
RTVSPropertyOp6
 70
     1
102
RTVSPropertyOp7
 70
     1
102
RTVSPropertyOp8
 70
     1
102
RTVSPropertyOp9
 70
     1
102
RTVSPropertyOp10
 70
     1
102
RTVSPropertyOp11
 70
     1
102
RTVSPropertyOp12
 70
     1
102
RTVSPropertyOp13
 70
     1
102
RTVSPropertyOp14
 70
     1
102
RTVSPropertyOp15
 70
     1
102
RTVSPropertyOp16
 70
     1
102
RTVSPropertyOp17
 70
     1
102
RTVSPropertyOp18
 70
     1
102
RTVSPropertyOp19
 70
     1
102
RTVSPropertyOp20
 70
     1
102
RTVSPropertyOp21
 70
     1
102
RTVSPropertyOp22
 70
     1
102
RTVSPropertyOp23
 70
     1
102
RTVSPropertyOp24
 70
     1
102
RTVSPropertyOp25
 70
     1
102
RTVSPropertyOp26
 70
     1
102
RTVSPropertyOp27
 70
     1
102
RTVSPropertyOp28
 70
     1
102
RTVSPropertyOp29
 70
     1
102
RTVSPropertyOp30
 70
     1
102
RTVSPropertyOp31
 70
     1
102
RTVSPropertyOp32
 70
     1
102
RTVSPropertyOp33
 70
     1
102
RTVSPropertyOp34
 70
     1
102
RTVSPropertyOp35
 70
     1
102
RTVSPropertyOp36
 70
     1
102
RTVSPropertyOp37
 70
     1
102
RTVSPropertyOp38
 70
     1
102
RTVSPropertyOp39
 70
     1
102
RTVSPropertyOp40
 70
     1
102
RTVSPropertyOp41
 70
     1
102
RTVSPropertyOp42
 70
     1
102
RTVSPropertyOp43
 70
     1
102
RTVSPropertyOp44
 70
     1
102
RTVSPropertyOp45
 70
     1
102
RTVSPropertyOp46
 70
     1
102
RTVSPropertyOp47
 70
     1
102
RTVSPropertyOp48
 70
     1
102
RTVSPropertyOp49
 70
     1
102
RTVSPropertyOp50
 70
     1
102
RTVSPropertyOp51
 70
     0
102
RTVSPropertyOp52
 70
     0
102
RTVSPropertyOp53
 70
     1
102
RTVSPropertyOp54
 70
     1
102
RTVSPropertyOp55
 70
     1
102
RTVSPropertyOp56
 70
     1
102
RTVSPropertyOp57
 70
     1
102
RTVSPost2010Prop28
280
     0
102
RTVSPost2010PropOp28
 70
     1
102
RTVSPost2010Prop29
280
     1
102
RTVSPost2010PropOp29
 70
     1
102
RTVSPost2010Prop30
280
     1
102
RTVSPost2010PropOp30
 70
     1
102
RTVSPost2010Prop31
280
     0
102
RTVSPost2010PropOp31
 70
     1
102
RTVSPost2010Prop32
280
     0
102
RTVSPost2010PropOp32
 70
     1
102
RTVSPost2010Prop33
280
     0
102
RTVSPost2010PropOp33
 70
     1
102
RTVSPost2010Prop34
280
     0
102
RTVSPost2010PropOp34
 70
     1
102
RTVSPost2010Prop35
280
     0
102
RTVSPost2010PropOp35
 70
     1
102
RTVSPost2010Prop36
280
     0
102
RTVSPost2010PropOp36
 70
     1
102
RTVSPost2010Prop37
 90
       50
102
RTVSPost2010PropOp37
 70
     1
102
RTVSPost2010Prop38
140
0.0
102
RTVSPost2010PropOp38
 70
     1
102
RTVSPost2010Prop39
140
1.0
102
RTVSPost2010PropOp39
 70
     1
102
RTVSPost2010Prop40
 90
        0
102
RTVSPost2010PropOp40
 70
     1
102
RTVSPost2010Prop41ColorIndex
 90
       18
102
RTVSPost2010Prop41ColorRGB
 90
        0
102
RTVSPost2010PropOp41
 70
     1
102
RTVSPost2010Prop42
 90
       50
102
RTVSPost2010PropOp42
 70
     1
102
RTVSPost2010Prop43
 90
        3
102
RTVSPost2010PropOp43
 70
     1
102
RTVSPost2010Prop44ColorIndex
 90
        5
102
RTVSPost2010Prop44ColorRGB
 90
      255
102
RTVSPost2010PropOp44
 70
     1
102
RTVSPost2010Prop45
280
     0
102
RTVSPost2010PropOp45
 70
     1
102
RTVSPost2010Prop46
 90
       50
102
RTVSPost2010PropOp46
 70
     1
102
RTVSPost2010Prop47
 90
       50
102
RTVSPost2010PropOp47
 70
     1
102
RTVSPost2010Prop48
 90
       50
102
RTVSPost2010PropOp48
 70
     1
102
RTVSPost2010Prop49
280
     0
102
RTVSPost2010PropOp49
 70
     1
102
RTVSPost2010Prop50
 90
       50
102
RTVSPost2010PropOp50
 70
     1
102
RTVSPost2010Prop51ColorIndex
 90
      256
102
RTVSPost2010Prop51ColorRGB
 90
-16777216
102
RTVSPost2010PropOp51
 70
     0
102
RTVSPost2010Prop52
140
1.0
102
RTVSPost2010PropOp52
 70
     0
102
RTVSPost2010Prop53
 90
        2
102
RTVSPost2010PropOp53
 70
     1
102
RTVSPost2010Prop54
  1
strokes_ogs.tif
102
RTVSPost2010PropOp54
 70
     1
102
RTVSPost2010Prop55
280
     0
102
RTVSPost2010PropOp55
 70
     1
102
RTVSPost2010Prop56
140
1.0
102
RTVSPost2010PropOp56
 70
     1
102
RTVSPost2010Prop57
140
1.0
102
RTVSPost2010PropOp57
 70
     1
  0
XRECORD
  5
379
102
{ACAD_REACTORS
330
378
102
}
330
378
100
AcDbXrecord
280
     1
102
RTVSPropertyOp0
 70
     1
102
RTVSPropertyOp1
 70
     1
102
RTVSPropertyOp2
 70
     1
102
RTVSPropertyOp3
 70
     1
102
RTVSPropertyOp4
 70
     1
102
RTVSPropertyOp5
 70
     1
102
RTVSPropertyOp6
 70
     1
102
RTVSPropertyOp7
 70
     1
102
RTVSPropertyOp8
 70
     1
102
RTVSPropertyOp9
 70
     1
102
RTVSPropertyOp10
 70
     1
102
RTVSPropertyOp11
 70
     1
102
RTVSPropertyOp12
 70
     1
102
RTVSPropertyOp13
 70
     1
102
RTVSPropertyOp14
 70
     1
102
RTVSPropertyOp15
 70
     1
102
RTVSPropertyOp16
 70
     1
102
RTVSPropertyOp17
 70
     1
102
RTVSPropertyOp18
 70
     1
102
RTVSPropertyOp19
 70
     1
102
RTVSPropertyOp20
 70
     1
102
RTVSPropertyOp21
 70
     1
102
RTVSPropertyOp22
 70
     1
102
RTVSPropertyOp23
 70
     1
102
RTVSPropertyOp24
 70
     1
102
RTVSPropertyOp25
 70
     1
102
RTVSPropertyOp26
 70
     1
102
RTVSPropertyOp27
 70
     1
102
RTVSPropertyOp28
 70
     1
102
RTVSPropertyOp29
 70
     1
102
RTVSPropertyOp30
 70
     1
102
RTVSPropertyOp31
 70
     1
102
RTVSPropertyOp32
 70
     1
102
RTVSPropertyOp33
 70
     1
102
RTVSPropertyOp34
 70
     1
102
RTVSPropertyOp35
 70
     1
102
RTVSPropertyOp36
 70
     1
102
RTVSPropertyOp37
 70
     1
102
RTVSPropertyOp38
 70
     1
102
RTVSPropertyOp39
 70
     1
102
RTVSPropertyOp40
 70
     1
102
RTVSPropertyOp41
 70
     1
102
RTVSPropertyOp42
 70
     1
102
RTVSPropertyOp43
 70
     1
102
RTVSPropertyOp44
 70
     1
102
RTVSPropertyOp45
 70
     1
102
RTVSPropertyOp46
 70
     1
102
RTVSPropertyOp47
 70
     1
102
RTVSPropertyOp48
 70
     1
102
RTVSPropertyOp49
 70
     1
102
RTVSPropertyOp50
 70
     1
102
RTVSPropertyOp51
 70
     0
102
RTVSPropertyOp52
 70
     0
102
RTVSPropertyOp53
 70
     1
102
RTVSPropertyOp54
 70
     1
102
RTVSPropertyOp55
 70
     1
102
RTVSPropertyOp56
 70
     1
102
RTVSPropertyOp57
 70
     1
102
RTVSPost2010Prop28
280
     0
102
RTVSPost2010PropOp28
 70
     1
102
RTVSPost2010Prop29
280
     1
102
RTVSPost2010PropOp29
 70
     1
102
RTVSPost2010Prop30
280
     1
102
RTVSPost2010PropOp30
 70
     1
102
RTVSPost2010Prop31
280
     0
102
RTVSPost2010PropOp31
 70
     1
102
RTVSPost2010Prop32
280
     0
102
RTVSPost2010PropOp32
 70
     1
102
RTVSPost2010Prop33
280
     0
102
RTVSPost2010PropOp33
 70
     1
102
RTVSPost2010Prop34
280
     0
102
RTVSPost2010PropOp34
 70
     1
102
RTVSPost2010Prop35
280
     0
102
RTVSPost2010PropOp35
 70
     1
102
RTVSPost2010Prop36
280
     0
102
RTVSPost2010PropOp36
 70
     1
102
RTVSPost2010Prop37
 90
       50
102
RTVSPost2010PropOp37
 70
     1
102
RTVSPost2010Prop38
140
0.0
102
RTVSPost2010PropOp38
 70
     1
102
RTVSPost2010Prop39
140
1.0
102
RTVSPost2010PropOp39
 70
     1
102
RTVSPost2010Prop40
 90
        0
102
RTVSPost2010PropOp40
 70
     1
102
RTVSPost2010Prop41ColorIndex
 90
       18
102
RTVSPost2010Prop41ColorRGB
 90
        0
102
RTVSPost2010PropOp41
 70
     1
102
RTVSPost2010Prop42
 90
       50
102
RTVSPost2010PropOp42
 70
     1
102
RTVSPost2010Prop43
 90
        3
102
RTVSPost2010PropOp43
 70
     1
102
RTVSPost2010Prop44ColorIndex
 90
        5
102
RTVSPost2010Prop44ColorRGB
 90
      255
102
RTVSPost2010PropOp44
 70
     1
102
RTVSPost2010Prop45
280
     0
102
RTVSPost2010PropOp45
 70
     1
102
RTVSPost2010Prop46
 90
       50
102
RTVSPost2010PropOp46
 70
     1
102
RTVSPost2010Prop47
 90
       50
102
RTVSPost2010PropOp47
 70
     1
102
RTVSPost2010Prop48
 90
       50
102
RTVSPost2010PropOp48
 70
     1
102
RTVSPost2010Prop49
280
     0
102
RTVSPost2010PropOp49
 70
     1
102
RTVSPost2010Prop50
 90
       50
102
RTVSPost2010PropOp50
 70
     1
102
RTVSPost2010Prop51ColorIndex
 90
      256
102
RTVSPost2010Prop51ColorRGB
 90
-16777216
102
RTVSPost2010PropOp51
 70
     0
102
RTVSPost2010Prop52
140
1.0
102
RTVSPost2010PropOp52
 70
     0
102
RTVSPost2010Prop53
 90
        2
102
RTVSPost2010PropOp53
 70
     1
102
RTVSPost2010Prop54
  1
strokes_ogs.tif
102
RTVSPost2010PropOp54
 70
     1
102
RTVSPost2010Prop55
280
     0
102
RTVSPost2010PropOp55
 70
     1
102
RTVSPost2010Prop56
140
1.0
102
RTVSPost2010PropOp56
 70
     1
102
RTVSPost2010Prop57
140
1.0
102
RTVSPost2010PropOp57
 70
     1
  0
XRECORD
  5
37B
102
{ACAD_REACTORS
330
37A
102
}
330
37A
100
AcDbXrecord
280
     1
102
RTVSPropertyOp0
 70
     1
102
RTVSPropertyOp1
 70
     1
102
RTVSPropertyOp2
 70
     1
102
RTVSPropertyOp3
 70
     1
102
RTVSPropertyOp4
 70
     1
102
RTVSPropertyOp5
 70
     1
102
RTVSPropertyOp6
 70
     1
102
RTVSPropertyOp7
 70
     1
102
RTVSPropertyOp8
 70
     1
102
RTVSPropertyOp9
 70
     1
102
RTVSPropertyOp10
 70
     1
102
RTVSPropertyOp11
 70
     1
102
RTVSPropertyOp12
 70
     1
102
RTVSPropertyOp13
 70
     1
102
RTVSPropertyOp14
 70
     1
102
RTVSPropertyOp15
 70
     1
102
RTVSPropertyOp16
 70
     1
102
RTVSPropertyOp17
 70
     1
102
RTVSPropertyOp18
 70
     1
102
RTVSPropertyOp19
 70
     1
102
RTVSPropertyOp20
 70
     1
102
RTVSPropertyOp21
 70
     1
102
RTVSPropertyOp22
 70
     1
102
RTVSPropertyOp23
 70
     1
102
RTVSPropertyOp24
 70
     1
102
RTVSPropertyOp25
 70
     1
102
RTVSPropertyOp26
 70
     1
102
RTVSPropertyOp27
 70
     1
102
RTVSPropertyOp28
 70
     1
102
RTVSPropertyOp29
 70
     1
102
RTVSPropertyOp30
 70
     1
102
RTVSPropertyOp31
 70
     1
102
RTVSPropertyOp32
 70
     1
102
RTVSPropertyOp33
 70
     1
102
RTVSPropertyOp34
 70
     1
102
RTVSPropertyOp35
 70
     1
102
RTVSPropertyOp36
 70
     1
102
RTVSPropertyOp37
 70
     1
102
RTVSPropertyOp38
 70
     1
102
RTVSPropertyOp39
 70
     1
102
RTVSPropertyOp40
 70
     1
102
RTVSPropertyOp41
 70
     1
102
RTVSPropertyOp42
 70
     1
102
RTVSPropertyOp43
 70
     1
102
RTVSPropertyOp44
 70
     1
102
RTVSPropertyOp45
 70
     1
102
RTVSPropertyOp46
 70
     1
102
RTVSPropertyOp47
 70
     1
102
RTVSPropertyOp48
 70
     1
102
RTVSPropertyOp49
 70
     1
102
RTVSPropertyOp50
 70
     1
102
RTVSPropertyOp51
 70
     0
102
RTVSPropertyOp52
 70
     0
102
RTVSPropertyOp53
 70
     1
102
RTVSPropertyOp54
 70
     1
102
RTVSPropertyOp55
 70
     1
102
RTVSPropertyOp56
 70
     1
102
RTVSPropertyOp57
 70
     1
102
RTVSPost2010Prop28
280
     0
102
RTVSPost2010PropOp28
 70
     1
102
RTVSPost2010Prop29
280
     1
102
RTVSPost2010PropOp29
 70
     1
102
RTVSPost2010Prop30
280
     1
102
RTVSPost2010PropOp30
 70
     1
102
RTVSPost2010Prop31
280
     0
102
RTVSPost2010PropOp31
 70
     1
102
RTVSPost2010Prop32
280
     0
102
RTVSPost2010PropOp32
 70
     1
102
RTVSPost2010Prop33
280
     0
102
RTVSPost2010PropOp33
 70
     1
102
RTVSPost2010Prop34
280
     0
102
RTVSPost2010PropOp34
 70
     1
102
RTVSPost2010Prop35
280
     0
102
RTVSPost2010PropOp35
 70
     1
102
RTVSPost2010Prop36
280
     0
102
RTVSPost2010PropOp36
 70
     1
102
RTVSPost2010Prop37
 90
       50
102
RTVSPost2010PropOp37
 70
     1
102
RTVSPost2010Prop38
140
0.0
102
RTVSPost2010PropOp38
 70
     1
102
RTVSPost2010Prop39
140
1.0
102
RTVSPost2010PropOp39
 70
     1
102
RTVSPost2010Prop40
 90
        0
102
RTVSPost2010PropOp40
 70
     1
102
RTVSPost2010Prop41ColorIndex
 90
       18
102
RTVSPost2010Prop41ColorRGB
 90
        0
102
RTVSPost2010PropOp41
 70
     1
102
RTVSPost2010Prop42
 90
       50
102
RTVSPost2010PropOp42
 70
     1
102
RTVSPost2010Prop43
 90
        3
102
RTVSPost2010PropOp43
 70
     1
102
RTVSPost2010Prop44ColorIndex
 90
        5
102
RTVSPost2010Prop44ColorRGB
 90
      255
102
RTVSPost2010PropOp44
 70
     1
102
RTVSPost2010Prop45
280
     0
102
RTVSPost2010PropOp45
 70
     1
102
RTVSPost2010Prop46
 90
       50
102
RTVSPost2010PropOp46
 70
     1
102
RTVSPost2010Prop47
 90
       50
102
RTVSPost2010PropOp47
 70
     1
102
RTVSPost2010Prop48
 90
       50
102
RTVSPost2010PropOp48
 70
     1
102
RTVSPost2010Prop49
280
     0
102
RTVSPost2010PropOp49
 70
     1
102
RTVSPost2010Prop50
 90
       50
102
RTVSPost2010PropOp50
 70
     1
102
RTVSPost2010Prop51ColorIndex
 90
      256
102
RTVSPost2010Prop51ColorRGB
 90
-16777216
102
RTVSPost2010PropOp51
 70
     0
102
RTVSPost2010Prop52
140
1.0
102
RTVSPost2010PropOp52
 70
     0
102
RTVSPost2010Prop53
 90
        2
102
RTVSPost2010PropOp53
 70
     1
102
RTVSPost2010Prop54
  1
strokes_ogs.tif
102
RTVSPost2010PropOp54
 70
     1
102
RTVSPost2010Prop55
280
     0
102
RTVSPost2010PropOp55
 70
     1
102
RTVSPost2010Prop56
140
1.0
102
RTVSPost2010PropOp56
 70
     1
102
RTVSPost2010Prop57
140
1.0
102
RTVSPost2010PropOp57
 70
     1
  0
XRECORD
  5
381
102
{ACAD_REACTORS
330
380
102
}
330
380
100
AcDbXrecord
280
     1
102
RTVSPropertyOp0
 70
     1
102
RTVSPropertyOp1
 70
     1
102
RTVSPropertyOp2
 70
     1
102
RTVSPropertyOp3
 70
     1
102
RTVSPropertyOp4
 70
     1
102
RTVSPropertyOp5
 70
     1
102
RTVSPropertyOp6
 70
     1
102
RTVSPropertyOp7
 70
     1
102
RTVSPropertyOp8
 70
     1
102
RTVSPropertyOp9
 70
     1
102
RTVSPropertyOp10
 70
     1
102
RTVSPropertyOp11
 70
     1
102
RTVSPropertyOp12
 70
     1
102
RTVSPropertyOp13
 70
     1
102
RTVSPropertyOp14
 70
     1
102
RTVSPropertyOp15
 70
     1
102
RTVSPropertyOp16
 70
     1
102
RTVSPropertyOp17
 70
     1
102
RTVSPropertyOp18
 70
     1
102
RTVSPropertyOp19
 70
     1
102
RTVSPropertyOp20
 70
     1
102
RTVSPropertyOp21
 70
     1
102
RTVSPropertyOp22
 70
     1
102
RTVSPropertyOp23
 70
     1
102
RTVSPropertyOp24
 70
     1
102
RTVSPropertyOp25
 70
     1
102
RTVSPropertyOp26
 70
     1
102
RTVSPropertyOp27
 70
     1
102
RTVSPropertyOp28
 70
     1
102
RTVSPropertyOp29
 70
     1
102
RTVSPropertyOp30
 70
     1
102
RTVSPropertyOp31
 70
     1
102
RTVSPropertyOp32
 70
     1
102
RTVSPropertyOp33
 70
     1
102
RTVSPropertyOp34
 70
     1
102
RTVSPropertyOp35
 70
     1
102
RTVSPropertyOp36
 70
     1
102
RTVSPropertyOp37
 70
     1
102
RTVSPropertyOp38
 70
     1
102
RTVSPropertyOp39
 70
     1
102
RTVSPropertyOp40
 70
     1
102
RTVSPropertyOp41
 70
     1
102
RTVSPropertyOp42
 70
     1
102
RTVSPropertyOp43
 70
     1
102
RTVSPropertyOp44
 70
     1
102
RTVSPropertyOp45
 70
     1
102
RTVSPropertyOp46
 70
     1
102
RTVSPropertyOp47
 70
     1
102
RTVSPropertyOp48
 70
     1
102
RTVSPropertyOp49
 70
     1
102
RTVSPropertyOp50
 70
     1
102
RTVSPropertyOp51
 70
     0
102
RTVSPropertyOp52
 70
     0
102
RTVSPropertyOp53
 70
     1
102
RTVSPropertyOp54
 70
     1
102
RTVSPropertyOp55
 70
     1
102
RTVSPropertyOp56
 70
     1
102
RTVSPropertyOp57
 70
     1
102
RTVSPost2010Prop28
280
     0
102
RTVSPost2010PropOp28
 70
     1
102
RTVSPost2010Prop29
280
     1
102
RTVSPost2010PropOp29
 70
     1
102
RTVSPost2010Prop30
280
     1
102
RTVSPost2010PropOp30
 70
     1
102
RTVSPost2010Prop31
280
     0
102
RTVSPost2010PropOp31
 70
     1
102
RTVSPost2010Prop32
280
     0
102
RTVSPost2010PropOp32
 70
     1
102
RTVSPost2010Prop33
280
     0
102
RTVSPost2010PropOp33
 70
     1
102
RTVSPost2010Prop34
280
     0
102
RTVSPost2010PropOp34
 70
     1
102
RTVSPost2010Prop35
280
     0
102
RTVSPost2010PropOp35
 70
     1
102
RTVSPost2010Prop36
280
     0
102
RTVSPost2010PropOp36
 70
     1
102
RTVSPost2010Prop37
 90
       50
102
RTVSPost2010PropOp37
 70
     1
102
RTVSPost2010Prop38
140
0.0
102
RTVSPost2010PropOp38
 70
     1
102
RTVSPost2010Prop39
140
1.0
102
RTVSPost2010PropOp39
 70
     1
102
RTVSPost2010Prop40
 90
        0
102
RTVSPost2010PropOp40
 70
     1
102
RTVSPost2010Prop41ColorIndex
 90
       18
102
RTVSPost2010Prop41ColorRGB
 90
        0
102
RTVSPost2010PropOp41
 70
     1
102
RTVSPost2010Prop42
 90
       50
102
RTVSPost2010PropOp42
 70
     1
102
RTVSPost2010Prop43
 90
        3
102
RTVSPost2010PropOp43
 70
     1
102
RTVSPost2010Prop44ColorIndex
 90
        5
102
RTVSPost2010Prop44ColorRGB
 90
      255
102
RTVSPost2010PropOp44
 70
     1
102
RTVSPost2010Prop45
280
     0
102
RTVSPost2010PropOp45
 70
     1
102
RTVSPost2010Prop46
 90
       50
102
RTVSPost2010PropOp46
 70
     1
102
RTVSPost2010Prop47
 90
       50
102
RTVSPost2010PropOp47
 70
     1
102
RTVSPost2010Prop48
 90
       50
102
RTVSPost2010PropOp48
 70
     1
102
RTVSPost2010Prop49
280
     0
102
RTVSPost2010PropOp49
 70
     1
102
RTVSPost2010Prop50
 90
       50
102
RTVSPost2010PropOp50
 70
     1
102
RTVSPost2010Prop51ColorIndex
 90
      256
102
RTVSPost2010Prop51ColorRGB
 90
-16777216
102
RTVSPost2010PropOp51
 70
     0
102
RTVSPost2010Prop52
140
1.0
102
RTVSPost2010PropOp52
 70
     0
102
RTVSPost2010Prop53
 90
        2
102
RTVSPost2010PropOp53
 70
     1
102
RTVSPost2010Prop54
  1
strokes_ogs.tif
102
RTVSPost2010PropOp54
 70
     1
102
RTVSPost2010Prop55
280
     0
102
RTVSPost2010PropOp55
 70
     1
102
RTVSPost2010Prop56
140
1.0
102
RTVSPost2010PropOp56
 70
     1
102
RTVSPost2010Prop57
140
1.0
102
RTVSPost2010PropOp57
 70
     1
  0
XRECORD
  5
395
102
{ACAD_REACTORS
330
394
102
}
330
394
100
AcDbXrecord
280
     1
102
RTVSPropertyOp0
 70
     0
102
RTVSPropertyOp1
 70
     0
102
RTVSPropertyOp2
 70
     0
102
RTVSPropertyOp3
 70
     0
102
RTVSPropertyOp4
 70
     0
102
RTVSPropertyOp5
 70
     0
102
RTVSPropertyOp6
 70
     0
102
RTVSPropertyOp7
 70
     0
102
RTVSPropertyOp8
 70
     0
102
RTVSPropertyOp9
 70
     0
102
RTVSPropertyOp10
 70
     0
102
RTVSPropertyOp11
 70
     0
102
RTVSPropertyOp12
 70
     0
102
RTVSPropertyOp13
 70
     0
102
RTVSPropertyOp14
 70
     2
102
RTVSPropertyOp15
 70
     0
102
RTVSPropertyOp16
 70
     0
102
RTVSPropertyOp17
 70
     0
102
RTVSPropertyOp18
 70
     0
102
RTVSPropertyOp19
 70
     0
102
RTVSPropertyOp20
 70
     0
102
RTVSPropertyOp21
 70
     0
102
RTVSPropertyOp22
 70
     0
102
RTVSPropertyOp23
 70
     0
102
RTVSPropertyOp24
 70
     0
102
RTVSPropertyOp25
 70
     0
102
RTVSPropertyOp26
 70
     0
102
RTVSPropertyOp27
 70
     0
102
RTVSPropertyOp28
 70
     0
102
RTVSPropertyOp29
 70
     0
102
RTVSPropertyOp30
 70
     0
102
RTVSPropertyOp31
 70
     0
102
RTVSPropertyOp32
 70
     0
102
RTVSPropertyOp33
 70
     0
102
RTVSPropertyOp34
 70
     0
102
RTVSPropertyOp35
 70
     0
102
RTVSPropertyOp36
 70
     0
102
RTVSPropertyOp37
 70
     0
102
RTVSPropertyOp38
 70
     0
102
RTVSPropertyOp39
 70
     0
102
RTVSPropertyOp40
 70
     0
102
RTVSPropertyOp41
 70
     0
102
RTVSPropertyOp42
 70
     0
102
RTVSPropertyOp43
 70
     0
102
RTVSPropertyOp44
 70
     0
102
RTVSPropertyOp45
 70
     0
102
RTVSPropertyOp46
 70
     0
102
RTVSPropertyOp47
 70
     0
102
RTVSPropertyOp48
 70
     0
102
RTVSPropertyOp49
 70
     0
102
RTVSPropertyOp50
 70
     0
102
RTVSPropertyOp51
 70
     0
102
RTVSPropertyOp52
 70
     0
102
RTVSPropertyOp53
 70
     0
102
RTVSPropertyOp54
 70
     0
102
RTVSPropertyOp55
 70
     0
102
RTVSPropertyOp56
 70
     0
102
RTVSPropertyOp57
 70
     0
102
RTVSPost2010Prop28
280
     0
102
RTVSPost2010PropOp28
 70
     0
102
RTVSPost2010Prop29
280
     1
102
RTVSPost2010PropOp29
 70
     0
102
RTVSPost2010Prop30
280
     1
102
RTVSPost2010PropOp30
 70
     0
102
RTVSPost2010Prop31
280
     0
102
RTVSPost2010PropOp31
 70
     0
102
RTVSPost2010Prop32
280
     0
102
RTVSPost2010PropOp32
 70
     0
102
RTVSPost2010Prop33
280
     0
102
RTVSPost2010PropOp33
 70
     0
102
RTVSPost2010Prop34
280
     0
102
RTVSPost2010PropOp34
 70
     0
102
RTVSPost2010Prop35
280
     0
102
RTVSPost2010PropOp35
 70
     0
102
RTVSPost2010Prop36
280
     0
102
RTVSPost2010PropOp36
 70
     0
102
RTVSPost2010Prop37
 90
       50
102
RTVSPost2010PropOp37
 70
     0
102
RTVSPost2010Prop38
140
0.0
102
RTVSPost2010PropOp38
 70
     0
102
RTVSPost2010Prop39
140
1.0
102
RTVSPost2010PropOp39
 70
     0
102
RTVSPost2010Prop40
 90
        0
102
RTVSPost2010PropOp40
 70
     0
102
RTVSPost2010Prop41ColorIndex
 90
       18
102
RTVSPost2010Prop41ColorRGB
 90
        0
102
RTVSPost2010PropOp41
 70
     0
102
RTVSPost2010Prop42
 90
       50
102
RTVSPost2010PropOp42
 70
     0
102
RTVSPost2010Prop43
 90
        3
102
RTVSPost2010PropOp43
 70
     0
102
RTVSPost2010Prop44ColorIndex
 90
        5
102
RTVSPost2010Prop44ColorRGB
 90
      255
102
RTVSPost2010PropOp44
 70
     0
102
RTVSPost2010Prop45
280
     0
102
RTVSPost2010PropOp45
 70
     0
102
RTVSPost2010Prop46
 90
       50
102
RTVSPost2010PropOp46
 70
     0
102
RTVSPost2010Prop47
 90
       50
102
RTVSPost2010PropOp47
 70
     0
102
RTVSPost2010Prop48
 90
       50
102
RTVSPost2010PropOp48
 70
     0
102
RTVSPost2010Prop49
280
     0
102
RTVSPost2010PropOp49
 70
     0
102
RTVSPost2010Prop50
 90
       50
102
RTVSPost2010PropOp50
 70
     0
102
RTVSPost2010Prop51ColorIndex
 90
      256
102
RTVSPost2010Prop51ColorRGB
 90
-16777216
102
RTVSPost2010PropOp51
 70
     0
102
RTVSPost2010Prop52
140
1.0
102
RTVSPost2010PropOp52
 70
     0
102
RTVSPost2010Prop53
 90
        2
102
RTVSPost2010PropOp53
 70
     0
102
RTVSPost2010Prop54
  1
strokes_ogs.tif
102
RTVSPost2010PropOp54
 70
     0
102
RTVSPost2010Prop55
280
     0
102
RTVSPost2010PropOp55
 70
     0
102
RTVSPost2010Prop56
140
1.0
102
RTVSPost2010PropOp56
 70
     0
102
RTVSPost2010Prop57
140
1.0
102
RTVSPost2010PropOp57
 70
     0
  0
XRECORD
  5
38F
102
{ACAD_REACTORS
330
38E
102
}
330
38E
100
AcDbXrecord
280
     1
102
RTVSPropertyOp0
 70
     1
102
RTVSPropertyOp1
 70
     1
102
RTVSPropertyOp2
 70
     1
102
RTVSPropertyOp3
 70
     1
102
RTVSPropertyOp4
 70
     1
102
RTVSPropertyOp5
 70
     1
102
RTVSPropertyOp6
 70
     1
102
RTVSPropertyOp7
 70
     1
102
RTVSPropertyOp8
 70
     1
102
RTVSPropertyOp9
 70
     1
102
RTVSPropertyOp10
 70
     1
102
RTVSPropertyOp11
 70
     1
102
RTVSPropertyOp12
 70
     1
102
RTVSPropertyOp13
 70
     1
102
RTVSPropertyOp14
 70
     1
102
RTVSPropertyOp15
 70
     1
102
RTVSPropertyOp16
 70
     1
102
RTVSPropertyOp17
 70
     1
102
RTVSPropertyOp18
 70
     1
102
RTVSPropertyOp19
 70
     1
102
RTVSPropertyOp20
 70
     1
102
RTVSPropertyOp21
 70
     1
102
RTVSPropertyOp22
 70
     1
102
RTVSPropertyOp23
 70
     1
102
RTVSPropertyOp24
 70
     1
102
RTVSPropertyOp25
 70
     1
102
RTVSPropertyOp26
 70
     1
102
RTVSPropertyOp27
 70
     1
102
RTVSPropertyOp28
 70
     1
102
RTVSPropertyOp29
 70
     1
102
RTVSPropertyOp30
 70
     1
102
RTVSPropertyOp31
 70
     1
102
RTVSPropertyOp32
 70
     1
102
RTVSPropertyOp33
 70
     1
102
RTVSPropertyOp34
 70
     1
102
RTVSPropertyOp35
 70
     1
102
RTVSPropertyOp36
 70
     1
102
RTVSPropertyOp37
 70
     1
102
RTVSPropertyOp38
 70
     1
102
RTVSPropertyOp39
 70
     1
102
RTVSPropertyOp40
 70
     1
102
RTVSPropertyOp41
 70
     1
102
RTVSPropertyOp42
 70
     1
102
RTVSPropertyOp43
 70
     1
102
RTVSPropertyOp44
 70
     1
102
RTVSPropertyOp45
 70
     1
102
RTVSPropertyOp46
 70
     1
102
RTVSPropertyOp47
 70
     1
102
RTVSPropertyOp48
 70
     1
102
RTVSPropertyOp49
 70
     1
102
RTVSPropertyOp50
 70
     1
102
RTVSPropertyOp51
 70
     0
102
RTVSPropertyOp52
 70
     0
102
RTVSPropertyOp53
 70
     1
102
RTVSPropertyOp54
 70
     1
102
RTVSPropertyOp55
 70
     1
102
RTVSPropertyOp56
 70
     1
102
RTVSPropertyOp57
 70
     1
102
RTVSPost2010Prop28
280
     0
102
RTVSPost2010PropOp28
 70
     1
102
RTVSPost2010Prop29
280
     1
102
RTVSPost2010PropOp29
 70
     1
102
RTVSPost2010Prop30
280
     1
102
RTVSPost2010PropOp30
 70
     1
102
RTVSPost2010Prop31
280
     0
102
RTVSPost2010PropOp31
 70
     1
102
RTVSPost2010Prop32
280
     0
102
RTVSPost2010PropOp32
 70
     1
102
RTVSPost2010Prop33
280
     0
102
RTVSPost2010PropOp33
 70
     1
102
RTVSPost2010Prop34
280
     0
102
RTVSPost2010PropOp34
 70
     1
102
RTVSPost2010Prop35
280
     0
102
RTVSPost2010PropOp35
 70
     1
102
RTVSPost2010Prop36
280
     0
102
RTVSPost2010PropOp36
 70
     1
102
RTVSPost2010Prop37
 90
       50
102
RTVSPost2010PropOp37
 70
     1
102
RTVSPost2010Prop38
140
0.0
102
RTVSPost2010PropOp38
 70
     1
102
RTVSPost2010Prop39
140
1.0
102
RTVSPost2010PropOp39
 70
     1
102
RTVSPost2010Prop40
 90
        0
102
RTVSPost2010PropOp40
 70
     1
102
RTVSPost2010Prop41ColorIndex
 90
       18
102
RTVSPost2010Prop41ColorRGB
 90
        0
102
RTVSPost2010PropOp41
 70
     1
102
RTVSPost2010Prop42
 90
       50
102
RTVSPost2010PropOp42
 70
     1
102
RTVSPost2010Prop43
 90
        3
102
RTVSPost2010PropOp43
 70
     1
102
RTVSPost2010Prop44ColorIndex
 90
        5
102
RTVSPost2010Prop44ColorRGB
 90
      255
102
RTVSPost2010PropOp44
 70
     1
102
RTVSPost2010Prop45
280
     0
102
RTVSPost2010PropOp45
 70
     1
102
RTVSPost2010Prop46
 90
       50
102
RTVSPost2010PropOp46
 70
     1
102
RTVSPost2010Prop47
 90
       50
102
RTVSPost2010PropOp47
 70
     1
102
RTVSPost2010Prop48
 90
       50
102
RTVSPost2010PropOp48
 70
     1
102
RTVSPost2010Prop49
280
     0
102
RTVSPost2010PropOp49
 70
     1
102
RTVSPost2010Prop50
 90
       50
102
RTVSPost2010PropOp50
 70
     1
102
RTVSPost2010Prop51ColorIndex
 90
      256
102
RTVSPost2010Prop51ColorRGB
 90
-16777216
102
RTVSPost2010PropOp51
 70
     0
102
RTVSPost2010Prop52
140
1.0
102
RTVSPost2010PropOp52
 70
     0
102
RTVSPost2010Prop53
 90
        2
102
RTVSPost2010PropOp53
 70
     1
102
RTVSPost2010Prop54
  1
strokes_ogs.tif
102
RTVSPost2010PropOp54
 70
     1
102
RTVSPost2010Prop55
280
     0
102
RTVSPost2010PropOp55
 70
     1
102
RTVSPost2010Prop56
140
1.0
102
RTVSPost2010PropOp56
 70
     1
102
RTVSPost2010Prop57
140
1.0
102
RTVSPost2010PropOp57
 70
     1
  0
XRECORD
  5
397
102
{ACAD_REACTORS
330
396
102
}
330
396
100
AcDbXrecord
280
     1
102
RTVSPropertyOp0
 70
     0
102
RTVSPropertyOp1
 70
     0
102
RTVSPropertyOp2
 70
     0
102
RTVSPropertyOp3
 70
     0
102
RTVSPropertyOp4
 70
     0
102
RTVSPropertyOp5
 70
     0
102
RTVSPropertyOp6
 70
     0
102
RTVSPropertyOp7
 70
     0
102
RTVSPropertyOp8
 70
     0
102
RTVSPropertyOp9
 70
     0
102
RTVSPropertyOp10
 70
     0
102
RTVSPropertyOp11
 70
     0
102
RTVSPropertyOp12
 70
     0
102
RTVSPropertyOp13
 70
     0
102
RTVSPropertyOp14
 70
     2
102
RTVSPropertyOp15
 70
     0
102
RTVSPropertyOp16
 70
     0
102
RTVSPropertyOp17
 70
     0
102
RTVSPropertyOp18
 70
     0
102
RTVSPropertyOp19
 70
     0
102
RTVSPropertyOp20
 70
     0
102
RTVSPropertyOp21
 70
     0
102
RTVSPropertyOp22
 70
     0
102
RTVSPropertyOp23
 70
     0
102
RTVSPropertyOp24
 70
     0
102
RTVSPropertyOp25
 70
     0
102
RTVSPropertyOp26
 70
     0
102
RTVSPropertyOp27
 70
     0
102
RTVSPropertyOp28
 70
     0
102
RTVSPropertyOp29
 70
     0
102
RTVSPropertyOp30
 70
     0
102
RTVSPropertyOp31
 70
     0
102
RTVSPropertyOp32
 70
     0
102
RTVSPropertyOp33
 70
     0
102
RTVSPropertyOp34
 70
     0
102
RTVSPropertyOp35
 70
     0
102
RTVSPropertyOp36
 70
     0
102
RTVSPropertyOp37
 70
     0
102
RTVSPropertyOp38
 70
     0
102
RTVSPropertyOp39
 70
     0
102
RTVSPropertyOp40
 70
     0
102
RTVSPropertyOp41
 70
     0
102
RTVSPropertyOp42
 70
     0
102
RTVSPropertyOp43
 70
     0
102
RTVSPropertyOp44
 70
     0
102
RTVSPropertyOp45
 70
     0
102
RTVSPropertyOp46
 70
     0
102
RTVSPropertyOp47
 70
     0
102
RTVSPropertyOp48
 70
     0
102
RTVSPropertyOp49
 70
     0
102
RTVSPropertyOp50
 70
     0
102
RTVSPropertyOp51
 70
     0
102
RTVSPropertyOp52
 70
     0
102
RTVSPropertyOp53
 70
     0
102
RTVSPropertyOp54
 70
     0
102
RTVSPropertyOp55
 70
     0
102
RTVSPropertyOp56
 70
     0
102
RTVSPropertyOp57
 70
     0
102
RTVSPost2010Prop28
280
     0
102
RTVSPost2010PropOp28
 70
     0
102
RTVSPost2010Prop29
280
     1
102
RTVSPost2010PropOp29
 70
     0
102
RTVSPost2010Prop30
280
     1
102
RTVSPost2010PropOp30
 70
     0
102
RTVSPost2010Prop31
280
     0
102
RTVSPost2010PropOp31
 70
     0
102
RTVSPost2010Prop32
280
     0
102
RTVSPost2010PropOp32
 70
     0
102
RTVSPost2010Prop33
280
     0
102
RTVSPost2010PropOp33
 70
     0
102
RTVSPost2010Prop34
280
     0
102
RTVSPost2010PropOp34
 70
     0
102
RTVSPost2010Prop35
280
     0
102
RTVSPost2010PropOp35
 70
     0
102
RTVSPost2010Prop36
280
     0
102
RTVSPost2010PropOp36
 70
     0
102
RTVSPost2010Prop37
 90
       50
102
RTVSPost2010PropOp37
 70
     0
102
RTVSPost2010Prop38
140
0.0
102
RTVSPost2010PropOp38
 70
     0
102
RTVSPost2010Prop39
140
1.0
102
RTVSPost2010PropOp39
 70
     0
102
RTVSPost2010Prop40
 90
        0
102
RTVSPost2010PropOp40
 70
     0
102
RTVSPost2010Prop41ColorIndex
 90
       18
102
RTVSPost2010Prop41ColorRGB
 90
        0
102
RTVSPost2010PropOp41
 70
     0
102
RTVSPost2010Prop42
 90
       50
102
RTVSPost2010PropOp42
 70
     0
102
RTVSPost2010Prop43
 90
        3
102
RTVSPost2010PropOp43
 70
     0
102
RTVSPost2010Prop44ColorIndex
 90
        5
102
RTVSPost2010Prop44ColorRGB
 90
      255
102
RTVSPost2010PropOp44
 70
     0
102
RTVSPost2010Prop45
280
     0
102
RTVSPost2010PropOp45
 70
     0
102
RTVSPost2010Prop46
 90
       50
102
RTVSPost2010PropOp46
 70
     0
102
RTVSPost2010Prop47
 90
       50
102
RTVSPost2010PropOp47
 70
     0
102
RTVSPost2010Prop48
 90
       50
102
RTVSPost2010PropOp48
 70
     0
102
RTVSPost2010Prop49
280
     0
102
RTVSPost2010PropOp49
 70
     0
102
RTVSPost2010Prop50
 90
       50
102
RTVSPost2010PropOp50
 70
     0
102
RTVSPost2010Prop51ColorIndex
 90
      256
102
RTVSPost2010Prop51ColorRGB
 90
-16777216
102
RTVSPost2010PropOp51
 70
     0
102
RTVSPost2010Prop52
140
1.0
102
RTVSPost2010PropOp52
 70
     0
102
RTVSPost2010Prop53
 90
        2
102
RTVSPost2010PropOp53
 70
     0
102
RTVSPost2010Prop54
  1
strokes_ogs.tif
102
RTVSPost2010PropOp54
 70
     0
102
RTVSPost2010Prop55
280
     0
102
RTVSPost2010PropOp55
 70
     0
102
RTVSPost2010Prop56
140
1.0
102
RTVSPost2010PropOp56
 70
     0
102
RTVSPost2010Prop57
140
1.0
102
RTVSPost2010PropOp57
 70
     0
  0
XRECORD
  5
385
102
{ACAD_REACTORS
330
384
102
}
330
384
100
AcDbXrecord
280
     1
102
RTVSPropertyOp0
 70
     1
102
RTVSPropertyOp1
 70
     1
102
RTVSPropertyOp2
 70
     1
102
RTVSPropertyOp3
 70
     1
102
RTVSPropertyOp4
 70
     1
102
RTVSPropertyOp5
 70
     1
102
RTVSPropertyOp6
 70
     1
102
RTVSPropertyOp7
 70
     1
102
RTVSPropertyOp8
 70
     1
102
RTVSPropertyOp9
 70
     1
102
RTVSPropertyOp10
 70
     1
102
RTVSPropertyOp11
 70
     1
102
RTVSPropertyOp12
 70
     1
102
RTVSPropertyOp13
 70
     1
102
RTVSPropertyOp14
 70
     1
102
RTVSPropertyOp15
 70
     1
102
RTVSPropertyOp16
 70
     1
102
RTVSPropertyOp17
 70
     1
102
RTVSPropertyOp18
 70
     1
102
RTVSPropertyOp19
 70
     1
102
RTVSPropertyOp20
 70
     1
102
RTVSPropertyOp21
 70
     1
102
RTVSPropertyOp22
 70
     1
102
RTVSPropertyOp23
 70
     1
102
RTVSPropertyOp24
 70
     1
102
RTVSPropertyOp25
 70
     1
102
RTVSPropertyOp26
 70
     1
102
RTVSPropertyOp27
 70
     1
102
RTVSPropertyOp28
 70
     1
102
RTVSPropertyOp29
 70
     1
102
RTVSPropertyOp30
 70
     1
102
RTVSPropertyOp31
 70
     1
102
RTVSPropertyOp32
 70
     1
102
RTVSPropertyOp33
 70
     1
102
RTVSPropertyOp34
 70
     1
102
RTVSPropertyOp35
 70
     1
102
RTVSPropertyOp36
 70
     1
102
RTVSPropertyOp37
 70
     1
102
RTVSPropertyOp38
 70
     1
102
RTVSPropertyOp39
 70
     1
102
RTVSPropertyOp40
 70
     1
102
RTVSPropertyOp41
 70
     1
102
RTVSPropertyOp42
 70
     1
102
RTVSPropertyOp43
 70
     1
102
RTVSPropertyOp44
 70
     1
102
RTVSPropertyOp45
 70
     1
102
RTVSPropertyOp46
 70
     1
102
RTVSPropertyOp47
 70
     1
102
RTVSPropertyOp48
 70
     1
102
RTVSPropertyOp49
 70
     1
102
RTVSPropertyOp50
 70
     1
102
RTVSPropertyOp51
 70
     0
102
RTVSPropertyOp52
 70
     0
102
RTVSPropertyOp53
 70
     1
102
RTVSPropertyOp54
 70
     1
102
RTVSPropertyOp55
 70
     1
102
RTVSPropertyOp56
 70
     1
102
RTVSPropertyOp57
 70
     1
102
RTVSPost2010Prop28
280
     0
102
RTVSPost2010PropOp28
 70
     1
102
RTVSPost2010Prop29
280
     1
102
RTVSPost2010PropOp29
 70
     1
102
RTVSPost2010Prop30
280
     1
102
RTVSPost2010PropOp30
 70
     1
102
RTVSPost2010Prop31
280
     0
102
RTVSPost2010PropOp31
 70
     1
102
RTVSPost2010Prop32
280
     0
102
RTVSPost2010PropOp32
 70
     1
102
RTVSPost2010Prop33
280
     0
102
RTVSPost2010PropOp33
 70
     1
102
RTVSPost2010Prop34
280
     0
102
RTVSPost2010PropOp34
 70
     1
102
RTVSPost2010Prop35
280
     0
102
RTVSPost2010PropOp35
 70
     1
102
RTVSPost2010Prop36
280
     0
102
RTVSPost2010PropOp36
 70
     1
102
RTVSPost2010Prop37
 90
       50
102
RTVSPost2010PropOp37
 70
     1
102
RTVSPost2010Prop38
140
0.0
102
RTVSPost2010PropOp38
 70
     1
102
RTVSPost2010Prop39
140
1.0
102
RTVSPost2010PropOp39
 70
     1
102
RTVSPost2010Prop40
 90
        0
102
RTVSPost2010PropOp40
 70
     1
102
RTVSPost2010Prop41ColorIndex
 90
       18
102
RTVSPost2010Prop41ColorRGB
 90
        0
102
RTVSPost2010PropOp41
 70
     1
102
RTVSPost2010Prop42
 90
       50
102
RTVSPost2010PropOp42
 70
     1
102
RTVSPost2010Prop43
 90
        3
102
RTVSPost2010PropOp43
 70
     1
102
RTVSPost2010Prop44ColorIndex
 90
        5
102
RTVSPost2010Prop44ColorRGB
 90
      255
102
RTVSPost2010PropOp44
 70
     1
102
RTVSPost2010Prop45
280
     0
102
RTVSPost2010PropOp45
 70
     1
102
RTVSPost2010Prop46
 90
       50
102
RTVSPost2010PropOp46
 70
     1
102
RTVSPost2010Prop47
 90
       50
102
RTVSPost2010PropOp47
 70
     1
102
RTVSPost2010Prop48
 90
       50
102
RTVSPost2010PropOp48
 70
     1
102
RTVSPost2010Prop49
280
     0
102
RTVSPost2010PropOp49
 70
     1
102
RTVSPost2010Prop50
 90
       50
102
RTVSPost2010PropOp50
 70
     1
102
RTVSPost2010Prop51ColorIndex
 90
      256
102
RTVSPost2010Prop51ColorRGB
 90
-16777216
102
RTVSPost2010PropOp51
 70
     0
102
RTVSPost2010Prop52
140
1.0
102
RTVSPost2010PropOp52
 70
     0
102
RTVSPost2010Prop53
 90
        2
102
RTVSPost2010PropOp53
 70
     1
102
RTVSPost2010Prop54
  1
strokes_ogs.tif
102
RTVSPost2010PropOp54
 70
     1
102
RTVSPost2010Prop55
280
     0
102
RTVSPost2010PropOp55
 70
     1
102
RTVSPost2010Prop56
140
1.0
102
RTVSPost2010PropOp56
 70
     1
102
RTVSPost2010Prop57
140
1.0
102
RTVSPost2010PropOp57
 70
     1
  0
XRECORD
  5
3A3
102
{ACAD_REACTORS
330
3A2
102
}
330
3A2
100
AcDbXrecord
280
     1
102
RTVSPropertyOp0
 70
     1
102
RTVSPropertyOp1
 70
     1
102
RTVSPropertyOp2
 70
     1
102
RTVSPropertyOp3
 70
     1
102
RTVSPropertyOp4
 70
     1
102
RTVSPropertyOp5
 70
     1
102
RTVSPropertyOp6
 70
     1
102
RTVSPropertyOp7
 70
     1
102
RTVSPropertyOp8
 70
     1
102
RTVSPropertyOp9
 70
     1
102
RTVSPropertyOp10
 70
     1
102
RTVSPropertyOp11
 70
     1
102
RTVSPropertyOp12
 70
     1
102
RTVSPropertyOp13
 70
     1
102
RTVSPropertyOp14
 70
     1
102
RTVSPropertyOp15
 70
     1
102
RTVSPropertyOp16
 70
     1
102
RTVSPropertyOp17
 70
     1
102
RTVSPropertyOp18
 70
     1
102
RTVSPropertyOp19
 70
     1
102
RTVSPropertyOp20
 70
     1
102
RTVSPropertyOp21
 70
     1
102
RTVSPropertyOp22
 70
     1
102
RTVSPropertyOp23
 70
     1
102
RTVSPropertyOp24
 70
     1
102
RTVSPropertyOp25
 70
     1
102
RTVSPropertyOp26
 70
     1
102
RTVSPropertyOp27
 70
     1
102
RTVSPropertyOp28
 70
     1
102
RTVSPropertyOp29
 70
     1
102
RTVSPropertyOp30
 70
     1
102
RTVSPropertyOp31
 70
     1
102
RTVSPropertyOp32
 70
     1
102
RTVSPropertyOp33
 70
     1
102
RTVSPropertyOp34
 70
     1
102
RTVSPropertyOp35
 70
     1
102
RTVSPropertyOp36
 70
     1
102
RTVSPropertyOp37
 70
     1
102
RTVSPropertyOp38
 70
     1
102
RTVSPropertyOp39
 70
     1
102
RTVSPropertyOp40
 70
     1
102
RTVSPropertyOp41
 70
     1
102
RTVSPropertyOp42
 70
     1
102
RTVSPropertyOp43
 70
     1
102
RTVSPropertyOp44
 70
     1
102
RTVSPropertyOp45
 70
     1
102
RTVSPropertyOp46
 70
     1
102
RTVSPropertyOp47
 70
     1
102
RTVSPropertyOp48
 70
     1
102
RTVSPropertyOp49
 70
     1
102
RTVSPropertyOp50
 70
     1
102
RTVSPropertyOp51
 70
     0
102
RTVSPropertyOp52
 70
     0
102
RTVSPropertyOp53
 70
     1
102
RTVSPropertyOp54
 70
     1
102
RTVSPropertyOp55
 70
     1
102
RTVSPropertyOp56
 70
     1
102
RTVSPropertyOp57
 70
     1
102
RTVSPost2010Prop28
280
     0
102
RTVSPost2010PropOp28
 70
     1
102
RTVSPost2010Prop29
280
     1
102
RTVSPost2010PropOp29
 70
     1
102
RTVSPost2010Prop30
280
     1
102
RTVSPost2010PropOp30
 70
     1
102
RTVSPost2010Prop31
280
     0
102
RTVSPost2010PropOp31
 70
     1
102
RTVSPost2010Prop32
280
     0
102
RTVSPost2010PropOp32
 70
     1
102
RTVSPost2010Prop33
280
     0
102
RTVSPost2010PropOp33
 70
     1
102
RTVSPost2010Prop34
280
     0
102
RTVSPost2010PropOp34
 70
     1
102
RTVSPost2010Prop35
280
     0
102
RTVSPost2010PropOp35
 70
     1
102
RTVSPost2010Prop36
280
     0
102
RTVSPost2010PropOp36
 70
     1
102
RTVSPost2010Prop37
 90
       50
102
RTVSPost2010PropOp37
 70
     1
102
RTVSPost2010Prop38
140
0.0
102
RTVSPost2010PropOp38
 70
     1
102
RTVSPost2010Prop39
140
1.0
102
RTVSPost2010PropOp39
 70
     1
102
RTVSPost2010Prop40
 90
        0
102
RTVSPost2010PropOp40
 70
     1
102
RTVSPost2010Prop41ColorIndex
 90
       18
102
RTVSPost2010Prop41ColorRGB
 90
        0
102
RTVSPost2010PropOp41
 70
     1
102
RTVSPost2010Prop42
 90
       50
102
RTVSPost2010PropOp42
 70
     1
102
RTVSPost2010Prop43
 90
        3
102
RTVSPost2010PropOp43
 70
     1
102
RTVSPost2010Prop44ColorIndex
 90
        5
102
RTVSPost2010Prop44ColorRGB
 90
      255
102
RTVSPost2010PropOp44
 70
     1
102
RTVSPost2010Prop45
280
     0
102
RTVSPost2010PropOp45
 70
     1
102
RTVSPost2010Prop46
 90
       50
102
RTVSPost2010PropOp46
 70
     1
102
RTVSPost2010Prop47
 90
       50
102
RTVSPost2010PropOp47
 70
     1
102
RTVSPost2010Prop48
 90
       50
102
RTVSPost2010PropOp48
 70
     1
102
RTVSPost2010Prop49
280
     0
102
RTVSPost2010PropOp49
 70
     1
102
RTVSPost2010Prop50
 90
       50
102
RTVSPost2010PropOp50
 70
     1
102
RTVSPost2010Prop51ColorIndex
 90
      256
102
RTVSPost2010Prop51ColorRGB
 90
-16777216
102
RTVSPost2010PropOp51
 70
     0
102
RTVSPost2010Prop52
140
1.0
102
RTVSPost2010PropOp52
 70
     0
102
RTVSPost2010Prop53
 90
        2
102
RTVSPost2010PropOp53
 70
     1
102
RTVSPost2010Prop54
  1
strokes_ogs.tif
102
RTVSPost2010PropOp54
 70
     1
102
RTVSPost2010Prop55
280
     0
102
RTVSPost2010PropOp55
 70
     1
102
RTVSPost2010Prop56
140
1.0
102
RTVSPost2010PropOp56
 70
     1
102
RTVSPost2010Prop57
140
1.0
102
RTVSPost2010PropOp57
 70
     1
  0
XRECORD
  5
3A1
102
{ACAD_REACTORS
330
3A0
102
}
330
3A0
100
AcDbXrecord
280
     1
102
RTVSPropertyOp0
 70
     1
102
RTVSPropertyOp1
 70
     1
102
RTVSPropertyOp2
 70
     1
102
RTVSPropertyOp3
 70
     1
102
RTVSPropertyOp4
 70
     1
102
RTVSPropertyOp5
 70
     1
102
RTVSPropertyOp6
 70
     1
102
RTVSPropertyOp7
 70
     1
102
RTVSPropertyOp8
 70
     1
102
RTVSPropertyOp9
 70
     1
102
RTVSPropertyOp10
 70
     1
102
RTVSPropertyOp11
 70
     1
102
RTVSPropertyOp12
 70
     1
102
RTVSPropertyOp13
 70
     1
102
RTVSPropertyOp14
 70
     1
102
RTVSPropertyOp15
 70
     1
102
RTVSPropertyOp16
 70
     1
102
RTVSPropertyOp17
 70
     1
102
RTVSPropertyOp18
 70
     1
102
RTVSPropertyOp19
 70
     1
102
RTVSPropertyOp20
 70
     1
102
RTVSPropertyOp21
 70
     1
102
RTVSPropertyOp22
 70
     1
102
RTVSPropertyOp23
 70
     1
102
RTVSPropertyOp24
 70
     1
102
RTVSPropertyOp25
 70
     1
102
RTVSPropertyOp26
 70
     1
102
RTVSPropertyOp27
 70
     1
102
RTVSPropertyOp28
 70
     1
102
RTVSPropertyOp29
 70
     1
102
RTVSPropertyOp30
 70
     1
102
RTVSPropertyOp31
 70
     1
102
RTVSPropertyOp32
 70
     1
102
RTVSPropertyOp33
 70
     1
102
RTVSPropertyOp34
 70
     1
102
RTVSPropertyOp35
 70
     1
102
RTVSPropertyOp36
 70
     1
102
RTVSPropertyOp37
 70
     1
102
RTVSPropertyOp38
 70
     1
102
RTVSPropertyOp39
 70
     1
102
RTVSPropertyOp40
 70
     1
102
RTVSPropertyOp41
 70
     1
102
RTVSPropertyOp42
 70
     1
102
RTVSPropertyOp43
 70
     1
102
RTVSPropertyOp44
 70
     1
102
RTVSPropertyOp45
 70
     1
102
RTVSPropertyOp46
 70
     1
102
RTVSPropertyOp47
 70
     1
102
RTVSPropertyOp48
 70
     1
102
RTVSPropertyOp49
 70
     1
102
RTVSPropertyOp50
 70
     1
102
RTVSPropertyOp51
 70
     0
102
RTVSPropertyOp52
 70
     0
102
RTVSPropertyOp53
 70
     1
102
RTVSPropertyOp54
 70
     1
102
RTVSPropertyOp55
 70
     1
102
RTVSPropertyOp56
 70
     1
102
RTVSPropertyOp57
 70
     1
102
RTVSPost2010Prop28
280
     0
102
RTVSPost2010PropOp28
 70
     1
102
RTVSPost2010Prop29
280
     1
102
RTVSPost2010PropOp29
 70
     1
102
RTVSPost2010Prop30
280
     1
102
RTVSPost2010PropOp30
 70
     1
102
RTVSPost2010Prop31
280
     0
102
RTVSPost2010PropOp31
 70
     1
102
RTVSPost2010Prop32
280
     0
102
RTVSPost2010PropOp32
 70
     1
102
RTVSPost2010Prop33
280
     0
102
RTVSPost2010PropOp33
 70
     1
102
RTVSPost2010Prop34
280
     0
102
RTVSPost2010PropOp34
 70
     1
102
RTVSPost2010Prop35
280
     0
102
RTVSPost2010PropOp35
 70
     1
102
RTVSPost2010Prop36
280
     0
102
RTVSPost2010PropOp36
 70
     1
102
RTVSPost2010Prop37
 90
       50
102
RTVSPost2010PropOp37
 70
     1
102
RTVSPost2010Prop38
140
0.0
102
RTVSPost2010PropOp38
 70
     1
102
RTVSPost2010Prop39
140
1.0
102
RTVSPost2010PropOp39
 70
     1
102
RTVSPost2010Prop40
 90
        0
102
RTVSPost2010PropOp40
 70
     1
102
RTVSPost2010Prop41ColorIndex
 90
       18
102
RTVSPost2010Prop41ColorRGB
 90
        0
102
RTVSPost2010PropOp41
 70
     1
102
RTVSPost2010Prop42
 90
       50
102
RTVSPost2010PropOp42
 70
     1
102
RTVSPost2010Prop43
 90
        3
102
RTVSPost2010PropOp43
 70
     1
102
RTVSPost2010Prop44ColorIndex
 90
        5
102
RTVSPost2010Prop44ColorRGB
 90
      255
102
RTVSPost2010PropOp44
 70
     1
102
RTVSPost2010Prop45
280
     0
102
RTVSPost2010PropOp45
 70
     1
102
RTVSPost2010Prop46
 90
       50
102
RTVSPost2010PropOp46
 70
     1
102
RTVSPost2010Prop47
 90
       50
102
RTVSPost2010PropOp47
 70
     1
102
RTVSPost2010Prop48
 90
       50
102
RTVSPost2010PropOp48
 70
     1
102
RTVSPost2010Prop49
280
     0
102
RTVSPost2010PropOp49
 70
     1
102
RTVSPost2010Prop50
 90
       50
102
RTVSPost2010PropOp50
 70
     1
102
RTVSPost2010Prop51ColorIndex
 90
      256
102
RTVSPost2010Prop51ColorRGB
 90
-16777216
102
RTVSPost2010PropOp51
 70
     0
102
RTVSPost2010Prop52
140
1.0
102
RTVSPost2010PropOp52
 70
     0
102
RTVSPost2010Prop53
 90
        2
102
RTVSPost2010PropOp53
 70
     1
102
RTVSPost2010Prop54
  1
strokes_ogs.tif
102
RTVSPost2010PropOp54
 70
     1
102
RTVSPost2010Prop55
280
     0
102
RTVSPost2010PropOp55
 70
     1
102
RTVSPost2010Prop56
140
1.0
102
RTVSPost2010PropOp56
 70
     1
102
RTVSPost2010Prop57
140
1.0
102
RTVSPost2010PropOp57
 70
     1
  0
XRECORD
  5
39B
102
{ACAD_REACTORS
330
39A
102
}
330
39A
100
AcDbXrecord
280
     1
102
RTVSPropertyOp0
 70
     1
102
RTVSPropertyOp1
 70
     1
102
RTVSPropertyOp2
 70
     1
102
RTVSPropertyOp3
 70
     1
102
RTVSPropertyOp4
 70
     1
102
RTVSPropertyOp5
 70
     1
102
RTVSPropertyOp6
 70
     1
102
RTVSPropertyOp7
 70
     1
102
RTVSPropertyOp8
 70
     1
102
RTVSPropertyOp9
 70
     1
102
RTVSPropertyOp10
 70
     1
102
RTVSPropertyOp11
 70
     1
102
RTVSPropertyOp12
 70
     1
102
RTVSPropertyOp13
 70
     1
102
RTVSPropertyOp14
 70
     1
102
RTVSPropertyOp15
 70
     1
102
RTVSPropertyOp16
 70
     1
102
RTVSPropertyOp17
 70
     1
102
RTVSPropertyOp18
 70
     1
102
RTVSPropertyOp19
 70
     1
102
RTVSPropertyOp20
 70
     1
102
RTVSPropertyOp21
 70
     1
102
RTVSPropertyOp22
 70
     1
102
RTVSPropertyOp23
 70
     1
102
RTVSPropertyOp24
 70
     1
102
RTVSPropertyOp25
 70
     1
102
RTVSPropertyOp26
 70
     1
102
RTVSPropertyOp27
 70
     1
102
RTVSPropertyOp28
 70
     1
102
RTVSPropertyOp29
 70
     1
102
RTVSPropertyOp30
 70
     1
102
RTVSPropertyOp31
 70
     1
102
RTVSPropertyOp32
 70
     1
102
RTVSPropertyOp33
 70
     1
102
RTVSPropertyOp34
 70
     1
102
RTVSPropertyOp35
 70
     1
102
RTVSPropertyOp36
 70
     1
102
RTVSPropertyOp37
 70
     1
102
RTVSPropertyOp38
 70
     1
102
RTVSPropertyOp39
 70
     1
102
RTVSPropertyOp40
 70
     1
102
RTVSPropertyOp41
 70
     1
102
RTVSPropertyOp42
 70
     1
102
RTVSPropertyOp43
 70
     1
102
RTVSPropertyOp44
 70
     1
102
RTVSPropertyOp45
 70
     1
102
RTVSPropertyOp46
 70
     1
102
RTVSPropertyOp47
 70
     1
102
RTVSPropertyOp48
 70
     1
102
RTVSPropertyOp49
 70
     1
102
RTVSPropertyOp50
 70
     1
102
RTVSPropertyOp51
 70
     0
102
RTVSPropertyOp52
 70
     0
102
RTVSPropertyOp53
 70
     1
102
RTVSPropertyOp54
 70
     1
102
RTVSPropertyOp55
 70
     1
102
RTVSPropertyOp56
 70
     1
102
RTVSPropertyOp57
 70
     1
102
RTVSPost2010Prop28
280
     0
102
RTVSPost2010PropOp28
 70
     1
102
RTVSPost2010Prop29
280
     1
102
RTVSPost2010PropOp29
 70
     1
102
RTVSPost2010Prop30
280
     1
102
RTVSPost2010PropOp30
 70
     1
102
RTVSPost2010Prop31
280
     0
102
RTVSPost2010PropOp31
 70
     1
102
RTVSPost2010Prop32
280
     0
102
RTVSPost2010PropOp32
 70
     1
102
RTVSPost2010Prop33
280
     0
102
RTVSPost2010PropOp33
 70
     1
102
RTVSPost2010Prop34
280
     0
102
RTVSPost2010PropOp34
 70
     1
102
RTVSPost2010Prop35
280
     0
102
RTVSPost2010PropOp35
 70
     1
102
RTVSPost2010Prop36
280
     0
102
RTVSPost2010PropOp36
 70
     1
102
RTVSPost2010Prop37
 90
       50
102
RTVSPost2010PropOp37
 70
     1
102
RTVSPost2010Prop38
140
0.0
102
RTVSPost2010PropOp38
 70
     1
102
RTVSPost2010Prop39
140
1.0
102
RTVSPost2010PropOp39
 70
     1
102
RTVSPost2010Prop40
 90
        0
102
RTVSPost2010PropOp40
 70
     1
102
RTVSPost2010Prop41ColorIndex
 90
       18
102
RTVSPost2010Prop41ColorRGB
 90
        0
102
RTVSPost2010PropOp41
 70
     1
102
RTVSPost2010Prop42
 90
       50
102
RTVSPost2010PropOp42
 70
     1
102
RTVSPost2010Prop43
 90
        3
102
RTVSPost2010PropOp43
 70
     1
102
RTVSPost2010Prop44ColorIndex
 90
        5
102
RTVSPost2010Prop44ColorRGB
 90
      255
102
RTVSPost2010PropOp44
 70
     1
102
RTVSPost2010Prop45
280
     0
102
RTVSPost2010PropOp45
 70
     1
102
RTVSPost2010Prop46
 90
       50
102
RTVSPost2010PropOp46
 70
     1
102
RTVSPost2010Prop47
 90
       50
102
RTVSPost2010PropOp47
 70
     1
102
RTVSPost2010Prop48
 90
       50
102
RTVSPost2010PropOp48
 70
     1
102
RTVSPost2010Prop49
280
     0
102
RTVSPost2010PropOp49
 70
     1
102
RTVSPost2010Prop50
 90
       50
102
RTVSPost2010PropOp50
 70
     1
102
RTVSPost2010Prop51ColorIndex
 90
      256
102
RTVSPost2010Prop51ColorRGB
 90
-16777216
102
RTVSPost2010PropOp51
 70
     0
102
RTVSPost2010Prop52
140
1.0
102
RTVSPost2010PropOp52
 70
     0
102
RTVSPost2010Prop53
 90
        2
102
RTVSPost2010PropOp53
 70
     1
102
RTVSPost2010Prop54
  1
strokes_ogs.tif
102
RTVSPost2010PropOp54
 70
     1
102
RTVSPost2010Prop55
280
     0
102
RTVSPost2010PropOp55
 70
     1
102
RTVSPost2010Prop56
140
1.0
102
RTVSPost2010PropOp56
 70
     1
102
RTVSPost2010Prop57
140
1.0
102
RTVSPost2010PropOp57
 70
     1
  0
XRECORD
  5
39D
102
{ACAD_REACTORS
330
39C
102
}
330
39C
100
AcDbXrecord
280
     1
102
RTVSPropertyOp0
 70
     1
102
RTVSPropertyOp1
 70
     1
102
RTVSPropertyOp2
 70
     1
102
RTVSPropertyOp3
 70
     1
102
RTVSPropertyOp4
 70
     1
102
RTVSPropertyOp5
 70
     1
102
RTVSPropertyOp6
 70
     1
102
RTVSPropertyOp7
 70
     1
102
RTVSPropertyOp8
 70
     1
102
RTVSPropertyOp9
 70
     1
102
RTVSPropertyOp10
 70
     1
102
RTVSPropertyOp11
 70
     1
102
RTVSPropertyOp12
 70
     1
102
RTVSPropertyOp13
 70
     1
102
RTVSPropertyOp14
 70
     1
102
RTVSPropertyOp15
 70
     1
102
RTVSPropertyOp16
 70
     1
102
RTVSPropertyOp17
 70
     1
102
RTVSPropertyOp18
 70
     1
102
RTVSPropertyOp19
 70
     1
102
RTVSPropertyOp20
 70
     1
102
RTVSPropertyOp21
 70
     1
102
RTVSPropertyOp22
 70
     1
102
RTVSPropertyOp23
 70
     1
102
RTVSPropertyOp24
 70
     1
102
RTVSPropertyOp25
 70
     1
102
RTVSPropertyOp26
 70
     1
102
RTVSPropertyOp27
 70
     1
102
RTVSPropertyOp28
 70
     1
102
RTVSPropertyOp29
 70
     1
102
RTVSPropertyOp30
 70
     1
102
RTVSPropertyOp31
 70
     1
102
RTVSPropertyOp32
 70
     1
102
RTVSPropertyOp33
 70
     1
102
RTVSPropertyOp34
 70
     1
102
RTVSPropertyOp35
 70
     1
102
RTVSPropertyOp36
 70
     1
102
RTVSPropertyOp37
 70
     1
102
RTVSPropertyOp38
 70
     1
102
RTVSPropertyOp39
 70
     1
102
RTVSPropertyOp40
 70
     1
102
RTVSPropertyOp41
 70
     1
102
RTVSPropertyOp42
 70
     1
102
RTVSPropertyOp43
 70
     1
102
RTVSPropertyOp44
 70
     1
102
RTVSPropertyOp45
 70
     1
102
RTVSPropertyOp46
 70
     1
102
RTVSPropertyOp47
 70
     1
102
RTVSPropertyOp48
 70
     1
102
RTVSPropertyOp49
 70
     1
102
RTVSPropertyOp50
 70
     1
102
RTVSPropertyOp51
 70
     0
102
RTVSPropertyOp52
 70
     0
102
RTVSPropertyOp53
 70
     1
102
RTVSPropertyOp54
 70
     1
102
RTVSPropertyOp55
 70
     1
102
RTVSPropertyOp56
 70
     1
102
RTVSPropertyOp57
 70
     1
102
RTVSPost2010Prop28
280
     0
102
RTVSPost2010PropOp28
 70
     1
102
RTVSPost2010Prop29
280
     1
102
RTVSPost2010PropOp29
 70
     1
102
RTVSPost2010Prop30
280
     1
102
RTVSPost2010PropOp30
 70
     1
102
RTVSPost2010Prop31
280
     0
102
RTVSPost2010PropOp31
 70
     1
102
RTVSPost2010Prop32
280
     0
102
RTVSPost2010PropOp32
 70
     1
102
RTVSPost2010Prop33
280
     0
102
RTVSPost2010PropOp33
 70
     1
102
RTVSPost2010Prop34
280
     0
102
RTVSPost2010PropOp34
 70
     1
102
RTVSPost2010Prop35
280
     0
102
RTVSPost2010PropOp35
 70
     1
102
RTVSPost2010Prop36
280
     0
102
RTVSPost2010PropOp36
 70
     1
102
RTVSPost2010Prop37
 90
       50
102
RTVSPost2010PropOp37
 70
     1
102
RTVSPost2010Prop38
140
0.0
102
RTVSPost2010PropOp38
 70
     1
102
RTVSPost2010Prop39
140
1.0
102
RTVSPost2010PropOp39
 70
     1
102
RTVSPost2010Prop40
 90
        0
102
RTVSPost2010PropOp40
 70
     1
102
RTVSPost2010Prop41ColorIndex
 90
       18
102
RTVSPost2010Prop41ColorRGB
 90
        0
102
RTVSPost2010PropOp41
 70
     1
102
RTVSPost2010Prop42
 90
       50
102
RTVSPost2010PropOp42
 70
     1
102
RTVSPost2010Prop43
 90
        3
102
RTVSPost2010PropOp43
 70
     1
102
RTVSPost2010Prop44ColorIndex
 90
        5
102
RTVSPost2010Prop44ColorRGB
 90
      255
102
RTVSPost2010PropOp44
 70
     1
102
RTVSPost2010Prop45
280
     0
102
RTVSPost2010PropOp45
 70
     1
102
RTVSPost2010Prop46
 90
       50
102
RTVSPost2010PropOp46
 70
     1
102
RTVSPost2010Prop47
 90
       50
102
RTVSPost2010PropOp47
 70
     1
102
RTVSPost2010Prop48
 90
       50
102
RTVSPost2010PropOp48
 70
     1
102
RTVSPost2010Prop49
280
     0
102
RTVSPost2010PropOp49
 70
     1
102
RTVSPost2010Prop50
 90
       50
102
RTVSPost2010PropOp50
 70
     1
102
RTVSPost2010Prop51ColorIndex
 90
      256
102
RTVSPost2010Prop51ColorRGB
 90
-16777216
102
RTVSPost2010PropOp51
 70
     0
102
RTVSPost2010Prop52
140
1.0
102
RTVSPost2010PropOp52
 70
     0
102
RTVSPost2010Prop53
 90
        2
102
RTVSPost2010PropOp53
 70
     1
102
RTVSPost2010Prop54
  1
strokes_ogs.tif
102
RTVSPost2010PropOp54
 70
     1
102
RTVSPost2010Prop55
280
     0
102
RTVSPost2010PropOp55
 70
     1
102
RTVSPost2010Prop56
140
1.0
102
RTVSPost2010PropOp56
 70
     1
102
RTVSPost2010Prop57
140
1.0
102
RTVSPost2010PropOp57
 70
     1
  0
XRECORD
  5
38D
102
{ACAD_REACTORS
330
38C
102
}
330
38C
100
AcDbXrecord
280
     1
102
RTVSPropertyOp0
 70
     1
102
RTVSPropertyOp1
 70
     1
102
RTVSPropertyOp2
 70
     1
102
RTVSPropertyOp3
 70
     1
102
RTVSPropertyOp4
 70
     1
102
RTVSPropertyOp5
 70
     1
102
RTVSPropertyOp6
 70
     1
102
RTVSPropertyOp7
 70
     1
102
RTVSPropertyOp8
 70
     1
102
RTVSPropertyOp9
 70
     1
102
RTVSPropertyOp10
 70
     1
102
RTVSPropertyOp11
 70
     1
102
RTVSPropertyOp12
 70
     1
102
RTVSPropertyOp13
 70
     1
102
RTVSPropertyOp14
 70
     1
102
RTVSPropertyOp15
 70
     1
102
RTVSPropertyOp16
 70
     1
102
RTVSPropertyOp17
 70
     1
102
RTVSPropertyOp18
 70
     1
102
RTVSPropertyOp19
 70
     1
102
RTVSPropertyOp20
 70
     1
102
RTVSPropertyOp21
 70
     1
102
RTVSPropertyOp22
 70
     1
102
RTVSPropertyOp23
 70
     1
102
RTVSPropertyOp24
 70
     1
102
RTVSPropertyOp25
 70
     1
102
RTVSPropertyOp26
 70
     1
102
RTVSPropertyOp27
 70
     1
102
RTVSPropertyOp28
 70
     1
102
RTVSPropertyOp29
 70
     1
102
RTVSPropertyOp30
 70
     1
102
RTVSPropertyOp31
 70
     1
102
RTVSPropertyOp32
 70
     1
102
RTVSPropertyOp33
 70
     1
102
RTVSPropertyOp34
 70
     1
102
RTVSPropertyOp35
 70
     1
102
RTVSPropertyOp36
 70
     1
102
RTVSPropertyOp37
 70
     1
102
RTVSPropertyOp38
 70
     1
102
RTVSPropertyOp39
 70
     1
102
RTVSPropertyOp40
 70
     1
102
RTVSPropertyOp41
 70
     1
102
RTVSPropertyOp42
 70
     1
102
RTVSPropertyOp43
 70
     1
102
RTVSPropertyOp44
 70
     1
102
RTVSPropertyOp45
 70
     1
102
RTVSPropertyOp46
 70
     1
102
RTVSPropertyOp47
 70
     1
102
RTVSPropertyOp48
 70
     1
102
RTVSPropertyOp49
 70
     1
102
RTVSPropertyOp50
 70
     1
102
RTVSPropertyOp51
 70
     0
102
RTVSPropertyOp52
 70
     0
102
RTVSPropertyOp53
 70
     1
102
RTVSPropertyOp54
 70
     1
102
RTVSPropertyOp55
 70
     1
102
RTVSPropertyOp56
 70
     1
102
RTVSPropertyOp57
 70
     1
102
RTVSPost2010Prop28
280
     0
102
RTVSPost2010PropOp28
 70
     1
102
RTVSPost2010Prop29
280
     1
102
RTVSPost2010PropOp29
 70
     1
102
RTVSPost2010Prop30
280
     1
102
RTVSPost2010PropOp30
 70
     1
102
RTVSPost2010Prop31
280
     0
102
RTVSPost2010PropOp31
 70
     1
102
RTVSPost2010Prop32
280
     0
102
RTVSPost2010PropOp32
 70
     1
102
RTVSPost2010Prop33
280
     0
102
RTVSPost2010PropOp33
 70
     1
102
RTVSPost2010Prop34
280
     0
102
RTVSPost2010PropOp34
 70
     1
102
RTVSPost2010Prop35
280
     0
102
RTVSPost2010PropOp35
 70
     1
102
RTVSPost2010Prop36
280
     0
102
RTVSPost2010PropOp36
 70
     1
102
RTVSPost2010Prop37
 90
       50
102
RTVSPost2010PropOp37
 70
     1
102
RTVSPost2010Prop38
140
0.0
102
RTVSPost2010PropOp38
 70
     1
102
RTVSPost2010Prop39
140
1.0
102
RTVSPost2010PropOp39
 70
     1
102
RTVSPost2010Prop40
 90
        0
102
RTVSPost2010PropOp40
 70
     1
102
RTVSPost2010Prop41ColorIndex
 90
       18
102
RTVSPost2010Prop41ColorRGB
 90
        0
102
RTVSPost2010PropOp41
 70
     1
102
RTVSPost2010Prop42
 90
       50
102
RTVSPost2010PropOp42
 70
     1
102
RTVSPost2010Prop43
 90
        3
102
RTVSPost2010PropOp43
 70
     1
102
RTVSPost2010Prop44ColorIndex
 90
        5
102
RTVSPost2010Prop44ColorRGB
 90
      255
102
RTVSPost2010PropOp44
 70
     1
102
RTVSPost2010Prop45
280
     0
102
RTVSPost2010PropOp45
 70
     1
102
RTVSPost2010Prop46
 90
       50
102
RTVSPost2010PropOp46
 70
     1
102
RTVSPost2010Prop47
 90
       50
102
RTVSPost2010PropOp47
 70
     1
102
RTVSPost2010Prop48
 90
       50
102
RTVSPost2010PropOp48
 70
     1
102
RTVSPost2010Prop49
280
     0
102
RTVSPost2010PropOp49
 70
     1
102
RTVSPost2010Prop50
 90
       50
102
RTVSPost2010PropOp50
 70
     1
102
RTVSPost2010Prop51ColorIndex
 90
      256
102
RTVSPost2010Prop51ColorRGB
 90
-16777216
102
RTVSPost2010PropOp51
 70
     0
102
RTVSPost2010Prop52
140
1.0
102
RTVSPost2010PropOp52
 70
     0
102
RTVSPost2010Prop53
 90
        2
102
RTVSPost2010PropOp53
 70
     1
102
RTVSPost2010Prop54
  1
strokes_ogs.tif
102
RTVSPost2010PropOp54
 70
     1
102
RTVSPost2010Prop55
280
     0
102
RTVSPost2010PropOp55
 70
     1
102
RTVSPost2010Prop56
140
1.0
102
RTVSPost2010PropOp56
 70
     1
102
RTVSPost2010Prop57
140
1.0
102
RTVSPost2010PropOp57
 70
     1
  0
XRECORD
  5
37F
102
{ACAD_REACTORS
330
37E
102
}
330
37E
100
AcDbXrecord
280
     1
102
RTVSPropertyOp0
 70
     1
102
RTVSPropertyOp1
 70
     1
102
RTVSPropertyOp2
 70
     1
102
RTVSPropertyOp3
 70
     1
102
RTVSPropertyOp4
 70
     1
102
RTVSPropertyOp5
 70
     1
102
RTVSPropertyOp6
 70
     1
102
RTVSPropertyOp7
 70
     1
102
RTVSPropertyOp8
 70
     1
102
RTVSPropertyOp9
 70
     1
102
RTVSPropertyOp10
 70
     1
102
RTVSPropertyOp11
 70
     1
102
RTVSPropertyOp12
 70
     1
102
RTVSPropertyOp13
 70
     1
102
RTVSPropertyOp14
 70
     1
102
RTVSPropertyOp15
 70
     1
102
RTVSPropertyOp16
 70
     1
102
RTVSPropertyOp17
 70
     1
102
RTVSPropertyOp18
 70
     1
102
RTVSPropertyOp19
 70
     1
102
RTVSPropertyOp20
 70
     1
102
RTVSPropertyOp21
 70
     1
102
RTVSPropertyOp22
 70
     1
102
RTVSPropertyOp23
 70
     1
102
RTVSPropertyOp24
 70
     1
102
RTVSPropertyOp25
 70
     1
102
RTVSPropertyOp26
 70
     1
102
RTVSPropertyOp27
 70
     1
102
RTVSPropertyOp28
 70
     1
102
RTVSPropertyOp29
 70
     1
102
RTVSPropertyOp30
 70
     1
102
RTVSPropertyOp31
 70
     1
102
RTVSPropertyOp32
 70
     1
102
RTVSPropertyOp33
 70
     1
102
RTVSPropertyOp34
 70
     1
102
RTVSPropertyOp35
 70
     1
102
RTVSPropertyOp36
 70
     1
102
RTVSPropertyOp37
 70
     1
102
RTVSPropertyOp38
 70
     1
102
RTVSPropertyOp39
 70
     1
102
RTVSPropertyOp40
 70
     1
102
RTVSPropertyOp41
 70
     1
102
RTVSPropertyOp42
 70
     1
102
RTVSPropertyOp43
 70
     1
102
RTVSPropertyOp44
 70
     1
102
RTVSPropertyOp45
 70
     1
102
RTVSPropertyOp46
 70
     1
102
RTVSPropertyOp47
 70
     1
102
RTVSPropertyOp48
 70
     1
102
RTVSPropertyOp49
 70
     1
102
RTVSPropertyOp50
 70
     1
102
RTVSPropertyOp51
 70
     0
102
RTVSPropertyOp52
 70
     0
102
RTVSPropertyOp53
 70
     1
102
RTVSPropertyOp54
 70
     1
102
RTVSPropertyOp55
 70
     1
102
RTVSPropertyOp56
 70
     1
102
RTVSPropertyOp57
 70
     1
102
RTVSPost2010Prop28
280
     0
102
RTVSPost2010PropOp28
 70
     1
102
RTVSPost2010Prop29
280
     1
102
RTVSPost2010PropOp29
 70
     1
102
RTVSPost2010Prop30
280
     1
102
RTVSPost2010PropOp30
 70
     1
102
RTVSPost2010Prop31
280
     0
102
RTVSPost2010PropOp31
 70
     1
102
RTVSPost2010Prop32
280
     0
102
RTVSPost2010PropOp32
 70
     1
102
RTVSPost2010Prop33
280
     0
102
RTVSPost2010PropOp33
 70
     1
102
RTVSPost2010Prop34
280
     0
102
RTVSPost2010PropOp34
 70
     1
102
RTVSPost2010Prop35
280
     0
102
RTVSPost2010PropOp35
 70
     1
102
RTVSPost2010Prop36
280
     0
102
RTVSPost2010PropOp36
 70
     1
102
RTVSPost2010Prop37
 90
       50
102
RTVSPost2010PropOp37
 70
     1
102
RTVSPost2010Prop38
140
0.0
102
RTVSPost2010PropOp38
 70
     1
102
RTVSPost2010Prop39
140
1.0
102
RTVSPost2010PropOp39
 70
     1
102
RTVSPost2010Prop40
 90
        0
102
RTVSPost2010PropOp40
 70
     1
102
RTVSPost2010Prop41ColorIndex
 90
       18
102
RTVSPost2010Prop41ColorRGB
 90
        0
102
RTVSPost2010PropOp41
 70
     1
102
RTVSPost2010Prop42
 90
       50
102
RTVSPost2010PropOp42
 70
     1
102
RTVSPost2010Prop43
 90
        3
102
RTVSPost2010PropOp43
 70
     1
102
RTVSPost2010Prop44ColorIndex
 90
        5
102
RTVSPost2010Prop44ColorRGB
 90
      255
102
RTVSPost2010PropOp44
 70
     1
102
RTVSPost2010Prop45
280
     0
102
RTVSPost2010PropOp45
 70
     1
102
RTVSPost2010Prop46
 90
       50
102
RTVSPost2010PropOp46
 70
     1
102
RTVSPost2010Prop47
 90
       50
102
RTVSPost2010PropOp47
 70
     1
102
RTVSPost2010Prop48
 90
       50
102
RTVSPost2010PropOp48
 70
     1
102
RTVSPost2010Prop49
280
     0
102
RTVSPost2010PropOp49
 70
     1
102
RTVSPost2010Prop50
 90
       50
102
RTVSPost2010PropOp50
 70
     1
102
RTVSPost2010Prop51ColorIndex
 90
      256
102
RTVSPost2010Prop51ColorRGB
 90
-16777216
102
RTVSPost2010PropOp51
 70
     0
102
RTVSPost2010Prop52
140
1.0
102
RTVSPost2010PropOp52
 70
     0
102
RTVSPost2010Prop53
 90
        2
102
RTVSPost2010PropOp53
 70
     1
102
RTVSPost2010Prop54
  1
strokes_ogs.tif
102
RTVSPost2010PropOp54
 70
     1
102
RTVSPost2010Prop55
280
     0
102
RTVSPost2010PropOp55
 70
     1
102
RTVSPost2010Prop56
140
1.0
102
RTVSPost2010PropOp56
 70
     1
102
RTVSPost2010Prop57
140
1.0
102
RTVSPost2010PropOp57
 70
     1
  0
XRECORD
  5
39F
102
{ACAD_REACTORS
330
39E
102
}
330
39E
100
AcDbXrecord
280
     1
102
RTVSPropertyOp0
 70
     1
102
RTVSPropertyOp1
 70
     1
102
RTVSPropertyOp2
 70
     1
102
RTVSPropertyOp3
 70
     1
102
RTVSPropertyOp4
 70
     1
102
RTVSPropertyOp5
 70
     1
102
RTVSPropertyOp6
 70
     1
102
RTVSPropertyOp7
 70
     1
102
RTVSPropertyOp8
 70
     1
102
RTVSPropertyOp9
 70
     1
102
RTVSPropertyOp10
 70
     1
102
RTVSPropertyOp11
 70
     1
102
RTVSPropertyOp12
 70
     1
102
RTVSPropertyOp13
 70
     1
102
RTVSPropertyOp14
 70
     1
102
RTVSPropertyOp15
 70
     1
102
RTVSPropertyOp16
 70
     1
102
RTVSPropertyOp17
 70
     1
102
RTVSPropertyOp18
 70
     1
102
RTVSPropertyOp19
 70
     1
102
RTVSPropertyOp20
 70
     1
102
RTVSPropertyOp21
 70
     1
102
RTVSPropertyOp22
 70
     1
102
RTVSPropertyOp23
 70
     1
102
RTVSPropertyOp24
 70
     1
102
RTVSPropertyOp25
 70
     1
102
RTVSPropertyOp26
 70
     1
102
RTVSPropertyOp27
 70
     1
102
RTVSPropertyOp28
 70
     1
102
RTVSPropertyOp29
 70
     1
102
RTVSPropertyOp30
 70
     1
102
RTVSPropertyOp31
 70
     1
102
RTVSPropertyOp32
 70
     1
102
RTVSPropertyOp33
 70
     1
102
RTVSPropertyOp34
 70
     1
102
RTVSPropertyOp35
 70
     1
102
RTVSPropertyOp36
 70
     1
102
RTVSPropertyOp37
 70
     1
102
RTVSPropertyOp38
 70
     1
102
RTVSPropertyOp39
 70
     1
102
RTVSPropertyOp40
 70
     1
102
RTVSPropertyOp41
 70
     1
102
RTVSPropertyOp42
 70
     1
102
RTVSPropertyOp43
 70
     1
102
RTVSPropertyOp44
 70
     1
102
RTVSPropertyOp45
 70
     1
102
RTVSPropertyOp46
 70
     1
102
RTVSPropertyOp47
 70
     1
102
RTVSPropertyOp48
 70
     1
102
RTVSPropertyOp49
 70
     1
102
RTVSPropertyOp50
 70
     1
102
RTVSPropertyOp51
 70
     0
102
RTVSPropertyOp52
 70
     0
102
RTVSPropertyOp53
 70
     1
102
RTVSPropertyOp54
 70
     1
102
RTVSPropertyOp55
 70
     1
102
RTVSPropertyOp56
 70
     1
102
RTVSPropertyOp57
 70
     1
102
RTVSPost2010Prop28
280
     0
102
RTVSPost2010PropOp28
 70
     1
102
RTVSPost2010Prop29
280
     1
102
RTVSPost2010PropOp29
 70
     1
102
RTVSPost2010Prop30
280
     1
102
RTVSPost2010PropOp30
 70
     1
102
RTVSPost2010Prop31
280
     0
102
RTVSPost2010PropOp31
 70
     1
102
RTVSPost2010Prop32
280
     0
102
RTVSPost2010PropOp32
 70
     1
102
RTVSPost2010Prop33
280
     0
102
RTVSPost2010PropOp33
 70
     1
102
RTVSPost2010Prop34
280
     0
102
RTVSPost2010PropOp34
 70
     1
102
RTVSPost2010Prop35
280
     0
102
RTVSPost2010PropOp35
 70
     1
102
RTVSPost2010Prop36
280
     0
102
RTVSPost2010PropOp36
 70
     1
102
RTVSPost2010Prop37
 90
       50
102
RTVSPost2010PropOp37
 70
     1
102
RTVSPost2010Prop38
140
0.0
102
RTVSPost2010PropOp38
 70
     1
102
RTVSPost2010Prop39
140
1.0
102
RTVSPost2010PropOp39
 70
     1
102
RTVSPost2010Prop40
 90
        0
102
RTVSPost2010PropOp40
 70
     1
102
RTVSPost2010Prop41ColorIndex
 90
       18
102
RTVSPost2010Prop41ColorRGB
 90
        0
102
RTVSPost2010PropOp41
 70
     1
102
RTVSPost2010Prop42
 90
       50
102
RTVSPost2010PropOp42
 70
     1
102
RTVSPost2010Prop43
 90
        3
102
RTVSPost2010PropOp43
 70
     1
102
RTVSPost2010Prop44ColorIndex
 90
        5
102
RTVSPost2010Prop44ColorRGB
 90
      255
102
RTVSPost2010PropOp44
 70
     1
102
RTVSPost2010Prop45
280
     0
102
RTVSPost2010PropOp45
 70
     1
102
RTVSPost2010Prop46
 90
       50
102
RTVSPost2010PropOp46
 70
     1
102
RTVSPost2010Prop47
 90
       50
102
RTVSPost2010PropOp47
 70
     1
102
RTVSPost2010Prop48
 90
       50
102
RTVSPost2010PropOp48
 70
     1
102
RTVSPost2010Prop49
280
     0
102
RTVSPost2010PropOp49
 70
     1
102
RTVSPost2010Prop50
 90
       50
102
RTVSPost2010PropOp50
 70
     1
102
RTVSPost2010Prop51ColorIndex
 90
      256
102
RTVSPost2010Prop51ColorRGB
 90
-16777216
102
RTVSPost2010PropOp51
 70
     0
102
RTVSPost2010Prop52
140
1.0
102
RTVSPost2010PropOp52
 70
     0
102
RTVSPost2010Prop53
 90
        2
102
RTVSPost2010PropOp53
 70
     1
102
RTVSPost2010Prop54
  1
strokes_ogs.tif
102
RTVSPost2010PropOp54
 70
     1
102
RTVSPost2010Prop55
280
     0
102
RTVSPost2010PropOp55
 70
     1
102
RTVSPost2010Prop56
140
1.0
102
RTVSPost2010PropOp56
 70
     1
102
RTVSPost2010Prop57
140
1.0
102
RTVSPost2010PropOp57
 70
     1
  0
ENDSEC
  0
EOF
